Blink 182

home > Blink 182

Always Version Tab

Blink 182

Difficulty: BeginnerBeginner

by GERMAN281

tuner correct add songbook print version text version save to e-mail
chordsukulelecavacokeyboardtabbassdrumsharmonicsflute Guitar Pro
chords

Always Version

  		INTRO 
|-----------------|-----------------|-----------------|-----------------| 
|-----------------|-----------------|-----------------|-----------------| 
|-----------------|-----------------|-----------------|-----------------| 
|-----------------|-----------------|-----------------|-----------------| 
|-2-2-2-2-2-2-2-2-|-4-4-4-4-4-4-4-4-|-6-6-6-6-6-6-6-6-|-2-2-2-2-2-2-2-2-| 
|-2-2-2-2-2-2-2-2-|-2-2-2-2-2-2-2-2-|-4-4-4-4-4-4-4-4-|-0-0-0-0-0-0-0-0-| 

COUPLET                                                        
|-----------------|-----------------|-----------------|-----------------| 
|-----------------|-----------------|-----------------|-----------------| 
|-----------------|-----------------|-----------------|-----------------| 
|-----------------|-----------------|-----------------|-----------------|   X2 
|-6-6-6-6-6-6-6-6-|-4-4-4-4-4-4-4-4-|-6-6-6-6-6-6-6-6-|-6-6-6-6-6-6-6-6-| 
|-7-7-7-7-7-7-7-7-|-6-6-6-6-6-6-6-6-|-4-4-4-4-4-4-4-4-|-4-4-4-4-4-4-4-4-| 

						      A la reprise! 
						      |-----------------| 
						      |-----------------| 
                                                      |-----------------| 
                                                      |-----------------| 
						      |-4-4-4-4-4-4-4-4-| 
						      |-2-2-2-2-2-2-2-2-| 

PRE-REFRAIN 
|-----------------| 
|---------4-----4-| 
|-----4-------4---|						X2 
|-----------------| 
|-2-2---2---2-----|REMPLACEZ LE 2 PAR:  4  
|-----------------|			puis 4 et enfin 0            


REFRAIN 
|-----------------|-----------------|-----------------|-----------------| 
|-----------------|-----------------|-----------------|-----------------| 
|-4-4-4-4-4-4-4-4-|-4-4-4-4-4-4-4-4-|-----------------|-----------------|    X2 
|-4-4-4-4-4-4-4-4-|-4-4-4-4-4-4-4-4-|-6-6-6-6-6-6-6-6-|-2-2-2-2-2-2-2-2-| 
|-2-2-2-2-2-2-2-2-|-6-6-6-6-6-6-6-6-|-6-6-6-6-6-6-6-6-|-2-2-2-2-2-2-2-2-| 
|-----------------|-----------------|-4-4-4-4-4-4-4-4-|-0-0-0-0-0-0-0-0-|    


Rejouez le pré-refrain puis: 
|-----------------|-----------------|-----------------|-----------------| 
|-----------------|-----------------|-----------------|-----------------| 
|-----------------|-----------------|-----------------|-----------------|   X4 
|-----------------|-----------------|-----------------|-----------------| 
|-6.----------6---|-4.----------4---|-6.--------------|-----------------| 
|-------7.--------|-------6.--------|-------4.----2---|-2---------------| 

Rejouez encore et encore le pré-refrain 4 fois puis refrain ensuite: 
ACCOMPAGNEMENT ( RIFF ) 
|-----------------|-----------------|-----------------|-----------------| 
|-4---4---4---4-5-|-4---4---4---4-5-|-4---4---4---4-5-|-4---4-5-4---4-5-| 
|---4---4---4-----|---4---4---4-----|---4---4---4-----|---4-------4-----| 
|-----------------|-----------------|-----------------|-----------------| 
|-----------------|-----------------|-----------------|-----------------| 
|-----------------|-----------------|-----------------|-----------------| 

EN MEME TEMPS: 
|-----------------|-----------------|-----------------|-----------------| 
|-----------------|-----------------|-----------------|-----------------| 
|-4-4-4-4-4-4-4-4-|-4-4-4-4-4-4-4-4-|-4-4-4-4-4-4-4-4-|-4/8-8-8-84-4-4-| 
|-4-4-4-4-4-4-4-4-|-4-4-4-4-4-4-4-4-|-4-4-4-4-4-4-4-4-|-x-x-x-x-x-x-x-x-| 
|-2-2-2-2-2-2-2-2-|-1-1-1-1-1-1-1-1-|-2-2-2-2-2-2-2-2-|-2-6-6-6-6-2-2-2-| 
|-----------------|-----------------|-----------------|-----------------| 

Ensuite la 1ere guit. joue l'intro la 2eme joue: 
|-----------------|-----------------|-----------------|-----------------| 
|-----------------|-----------------|-----------------|-----------------| 
|-8---------------|-6---------------|-4---------------|-------4--6------| 
|-x---------------|-x---------------|-x---------------|-------x--x------| 
|-6---------------|-4---------------|-2---------------|-------2--4------| 
|-----------------|-----------------|-----------------|-----------------| 


jouez le REFRAIN puis le RIFF   4 fois  

derniere note= |----------------| 
	       |----------------| 
	       |-----4----------| 
	       |-----4----------| 
	       |-----2----------| 
	       |----------------| 
	  

Search Paypal
auto scroll beats size up size down change color hide chords drawings
tab show chords e-chords YouTube Clip e-chords hide all tabs e-chords go to top tab