Blink 182

All the small things (ver. 2) Tab

Blink 182

Difficulty: EasyEasy

by luciano%29sk8%28

tuner correct add songbook print version text version save to e-mail
chordsukulelecavacokeyboardtabbassdrumsharmonicsflute Guitar Pro
close

there isn't a video lesson for this song

chords

All the small things (ver. 2)

  		 BLINK 182  
ALL THE SMAL THINGS 
 
  
e|-------------------------------------------------------| 
B|-------------------------------------------------------| 
G|-------55555555-10-10-10-10-10-10----------------------| 
D|-5--3--55555555-10-10-10-10-10-10--5555555----xxxx-33--|2x 
A|-5--3--33333333-8-8-8-8-8-8-8-8----5555555----xxxx-33--| 
E|-3--1------------------------------3333333----xxxx-11--| 
 
e|-------------------------------------------------------| 
B|-------------------------------------------------------| 
G|-55555555----------------------------55555555----------|4x 
D|-55555555-55555555-33333333-55555555-55555555----------| 
A|-33333333-55555555-33333333-55555555-33333333----------| 
E|----------33333333-11111111-33333333-------------------| 
  abafado 
e|-------------------------------------------------------| 
B|-------------------------------------------------------| 
G|-5~~~~~~~~~~~~~~~~~~~~~~~~~~~~~~~~~~~~~~~~~~~~~~~~~~~~~| 
D|-5~~~~~~~~~~~~~~~~~~~~~~~~~~~~~~~~~~~~~~~~~~~~~~~~~~~~~| 
A|-3~~~~~~~~~~~~~~~~~~~~~~~~~~~~~~~~~~~~~~~~~~~~~~~~~~~~~| 
E|-------------------------------------------------------| 
 refrão 
e|-------------------------------------------------------| 
B|-------------------------------------------------------| 
G|-5555555555555555--------------------------------------| 
D|-5555555555555555-55555-33333--------------------------|2x 
A|-3333333333333333-55555-33333--------------------------| 
E|------------------33333-11111--------------------------| 
 
e|-------------------------------------------------------| 
B|-------------------------------------------------------| 
G|-55555555-101010101010-999999999-77777777--------------| 
D|-55555555-101010101010-999999999-77777777-xxxx-33------|2x 
A|-33333333-8-8-8-8-8-8--777777777-55555555-xxxx-33------| 
E|------------------------------------------xxxx-11------| 
 
e|-------------------------------------------------------| 
B|-------------------------------------------------------| 
G|-55555555----------------------------55555555----------|4x 
D|-55555555-55555555-33333333-55555555-55555555----------| 
A|-33333333-55555555-33333333-55555555-33333333----------| 
E|----------33333333-11111111-33333333-------------------| 
  abafado 
e|-------------------------------------------------------| 
B|-------------------------------------------------------| 
G|-5~~~~~~~~~~~~~~~~~~~~~~~~~~~~~~~~~~~~~~~~~~~~~~~~~~~~~| 
D|-5~~~~~~~~~~~~~~~~~~~~~~~~~~~~~~~~~~~~~~~~~~~~~~~~~~~~~| 
A|-3~~~~~~~~~~~~~~~~~~~~~~~~~~~~~~~~~~~~~~~~~~~~~~~~~~~~~| 
E|-------------------------------------------------------| 
 refrão 
e|-------------------------------------------------------| 
B|-------------------------------------------------------| 
G|-5555555555555555--------------------------------------| 
D|-5555555555555555-55555-33333--------------------------|2x 
A|-3333333333333333-55555-33333--------------------------| 
E|------------------33333-11111--------------------------| 
 
e|-------------------------------------------------------| 
B|-------------------------------------------------------| 
G|-5--5--5--5--5--5--5--5--4--4--7--7--------------------| 
D|--5--5--5--5--5--5--5--5--5--5--5--5-------------------|6x 
A|-------------------------------------------------------| 
E|-------------------------------------------------------| 
 
e|-------------------------------------------------------| 
B|-------------------------------------------------------| 
G|-------------------------------------------------------| 
D|-3333333333--------------------------------------------| 
A|-3333333333--------------------------------------------| 
E|-1111111111--------------------------------------------| 
 abafado  
e|-------------------------------------------------------| 
B|-------------------------------------------------------| 
G|-5555555555555555--------------------------------------| 
D|-5555555555555555-55555-33333--------------------------|2x 
A|-3333333333333333-55555-33333--------------------------| 
E|------------------33333-11111--------------------------| 
 
e|-------------------------------------------------------| 
B|-------------------------------------------------------| 
G|-5~~~~~~~~~~~~~~~~~~~~~~~~~~~~~~~~~~~~~~~~~~~~~~~~~~~~~| 
D|-5~~~~~~~~~~~~~~~~~~~~~~~~~~~~~~~~~~~~~~~~~~~~~~~~~~~~~| 
A|-3~~~~~~~~~~~~~~~~~~~~~~~~~~~~~~~~~~~~~~~~~~~~~~~~~~~~~| 
E|-------------------------------------------------------| 
 (ai galera valeu em ai c vcs axarem q ta errado 
me manda um e-mail em gente tb valeu ) 
 ([email protected]) 
	  

Search Paypal
auto scroll beats size up size down change color hide chords drawings
tab show chords e-chords YouTube Clip e-chords hide all tabs e-chords go to top tab

share with facebook