Blink 182

home > Blink 182

All The Small Things (Original) Tab

Blink 182

Difficulty: BeginnerBeginner

by dimisouza

tuner correct add songbook print version text version save to e-mail
chordsukulelecavacokeyboardtabbassdrumsharmonicsflute Guitar Pro
chords

All The Small Things (Original)

  		Esta versão está 100% correta 
Afinação normal |e|B|G|D|A|E| 
 
 
------------|--------------------------|----------------------------------| 
------------|--------------------------|----------------------------------| 
------------|--5--5--5--5--5--5--5--5--|--10--10--10--10--10--10--10--10--| 
----5--3----|--5--5--5--5--5--5--5--5--|--10--10--10--10--10--10--10--10--| 
----5--3----|--3--3--3--3--3--3--3--3--|--8---8---8---8---8---8---8---8---| 
----3--1----|--------------------------|----------------------------------| 
 
 
                                                                                 
--------------------------|-------------------------|--------------------------| 
--------------------------|-------------------------|--------------------------| 
--------------------------|-------------------------|--5--5--5--5--5--5--5--5--| 
--5--5--5--5--5--5--5--5--|--5--x--x--x--x--3--3----|--5--5--5--5--5--5--5--5--| 
--5--5--5--5--5--5--5--5--|--5--x--x--x--x--3--3----|--3--3--3--3--3--3--3--3--| 
--3--3--3--3--3--3--3--3--|--3--x--x--x--x--1--1----|--------------------------| 
 
 
                                                               
----------------------------------|--------------------------| 
----------------------------------|--------------------------| 
--10--10--10--10--10--10--10--10--|--------------------------| 
--10--10--10--10--10--10--10--10--|--5--5--5--5--5--5--5--5--| 
--8---8---8---8---8---8---8---8---|--5--5--5--5--5--5--5--5--| 
----------------------------------|--3--3--3--3--3--3--3--3--| 
 
 
                                                                                 
-------------------------|--------------------------|--------------------------| 
-------------------------|--------------------------|--------------------------| 
-------------------------|--5--5--5--5--5--5--5--5--|--------------------------| 
--5--x--x--x--x--3--3----|--5--5--5--5--5--5--5--5--|--5--5--5--5--5--5--5--5--| 
--5--x--x--x--x--3--3----|--3--3--3--3--3--3--3--3--|--5--5--5--5--5--5--5--5--| 
--3--x--x--x--x--1--1----|--------------------------|--3--3--3--3--3--3--3--3--| 
 
 
                                                       
--------------------------|--------------------------| 
--------------------------|--------------------------| 
--------------------------|--------------------------| 
--3--3--3--3--3--3--3--3--|--5--5--5--5--5--5--5--5--| 
--3--3--3--3--3--3--3--3--|--5--5--5--5--5--5--5--5--| 
--1--1--1--1--1--1--1--1--|--3--3--3--3--3--3--3--3--| 
 
 
                                                       
--------------------------|--------------------------| 
--------------------------|--------------------------| 
--5--5--5--5--5--5--5--5--|--------------------------| 
--5--5--5--5--5--5--5--5--|--5--5--5--5--5--5--5--5--| 
--3--3--3--3--3--3--3--3--|--5--5--5--5--5--5--5--5--| 
--------------------------|--3--3--3--3--3--3--3--3--| 
 
 
                                                       
--------------------------|--------------------------| 
--------------------------|--------------------------| 
--------------------------|--------------------------| 
--3--3--3--3--3--3--3--3--|--5--5--5--5--5--5--5--5--| 
--3--3--3--3--3--3--3--3--|--5--5--5--5--5--5--5--5--| 
--1--1--1--1--1--1--1--1--|--3--3--3--3--3--3--3--3--| 
 
 
                                                       
--------------------------|--------------------------| 
--------------------------|--------------------------| 
--5--5--5--5--5--5--5--5--|--------------------------| 
--5--5--5--5--5--5--5--5--|--5--5--5--5--5--5--5--5--| 
--3--3--3--3--3--3--3--3--|--5--5--5--5--5--5--5--5--| 
--------------------------|--3--3--3--3--3--3--3--3--| 
 
 
                                                       
--------------------------|--------------------------| 
--------------------------|--------------------------| 
--------------------------|--------------------------| 
--3--3--3--3--3--3--3--3--|--5--5--5--5--5--5--5--5--| 
--3--3--3--3--3--3--3--3--|--5--5--5--5--5--5--5--5--| 
--1--1--1--1--1--1--1--1--|--3--3--3--3--3--3--3--3--| 
 
 
                                                       
--------------------------|--------------------------| 
--------------------------|--------------------------| 
--5--5--5--5--5--5--5--5--|--------------------------| 
--5--5--5--5--5--5--5--5--|--5--5--5--5--5--5--5--5--| 
--3--3--3--3--3--3--3--3--|--5--5--5--5--5--5--5--5--| 
--------------------------|--3--3--3--3--3--3--3--3--| 
 
 
                                                                           
--------------------------|--------------------------|-------------------| 
--------------------------|--------------------------|-------------------| 
--------------------------|--------------------------|--5----------------| 
--3--3--3--3--3--3--3--3--|--5--5--5--5--5--5--5--5--|--5----------------| 
--3--3--3--3--3--3--3--3--|--5--5--5--5--5--5--5--5--|--3----------------| 
--1--1--1--1--1--1--1--1--|--3--3--3--3--3--3--3--3--|-------------------| 
 
 
                                                          
------------------|------------------|------------------| 
------------------|------------------|------------------| 
------------------|------------------|------------------| 
------------------|------------------|------------------| 
------------------|------------------|------------------| 
------------------|------------------|------------------| 
 
 
                                                       
--------------------------|--------------------------| 
--------------------------|--------------------------| 
--5--5--5--5--5--5--5--5--|--5--5--5--5--5--5--5--5--| 
--5--5--5--5--5--5--5--5--|--5--5--5--5--5--5--5--5--| 
--3--3--3--3--3--3--3--3--|--3--3--3--3--3--3--3--3--| 
--------------------------|--------------------------| 
 
 
                                                       
--------------------------|--------------------------| 
--------------------------|--------------------------| 
--------------------------|--------------------------| 
--5--5--5--5--5--5--5--5--|--3--3--3--3--3--3--3--3--| 
--5--5--5--5--5--5--5--5--|--3--3--3--3--3--3--3--3--| 
--3--3--3--3--3--3--3--3--|--1--1--1--1--1--1--1--1--| 
 
 
                                                       
--------------------------|--------------------------| 
--------------------------|--------------------------| 
--5--5--5--5--5--5--5--5--|--5--5--5--5--5--5--5--5--| 
--5--5--5--5--5--5--5--5--|--5--5--5--5--5--5--5--5--| 
--3--3--3--3--3--3--3--3--|--3--3--3--3--3--3--3--3--| 
--------------------------|--------------------------| 
 
 
                                                       
--------------------------|--------------------------| 
--------------------------|--------------------------| 
--------------------------|--------------------------| 
--3--3--3--3--3--3--3--3--|--5--5--5--5--5--5--5--5--| 
--3--3--3--3--3--3--3--3--|--5--5--5--5--5--5--5--5--| 
--1--1--1--1--1--1--1--1--|--3--3--3--3--3--3--3--3--| 
 
 
                                                           
---------------------------|-----------------------------| 
---------------------------|-----------------------------| 
--5--5--5--5--5--5--5--10--|--10--10--10--9--9--9--9--9--| 
--5--5--5--5--5--5--5--10--|--10--10--10--9--9--9--9--9--| 
--3--3--3--3--3--3--3--8---|--8---8---8---7--7--7--7--7--| 
---------------------------|-----------------------------| 
 
 
                                                      
--------------------------|-------------------------| 
--------------------------|-------------------------| 
--7--7--7--7--7--7--7--7--|--7----------------------| 
--7--7--7--7--7--7--7--7--|--7--x--x--x--x--3--3----| 
--5--5--5--5--5--5--5--5--|--5--x--x--x--x--3--3----| 
--------------------------|-----x--x--x--x--1--1----| 
 
 
                                                           
---------------------------|-----------------------------| 
---------------------------|-----------------------------| 
--5--5--5--5--5--5--5--10--|--10--10--10--9--9--9--9--9--| 
--5--5--5--5--5--5--5--10--|--10--10--10--9--9--9--9--9--| 
--3--3--3--3--3--3--3--8---|--8---8---8---7--7--7--7--7--| 
---------------------------|-----------------------------| 
 
 
                                                                                 
--------------------------|-------------------------|--------------------------| 
--------------------------|-------------------------|--------------------------| 
--7--7--7--7--7--7--7--7--|--7----------------------|--5--5--5--5--5--5--5--5--| 
--7--7--7--7--7--7--7--7--|--7--x--x--x--x--3--3----|--5--5--5--5--5--5--5--5--| 
--5--5--5--5--5--5--5--5--|--5--x--x--x--x--3--3----|--3--3--3--3--3--3--3--3--| 
--------------------------|-----x--x--x--x--1--1----|--------------------------| 
 
 
                                                       
--------------------------|--------------------------| 
--------------------------|--------------------------| 
--------------------------|--------------------------| 
--5--5--5--5--5--5--5--5--|--3--3--3--3--3--3--3--3--| 
--5--5--5--5--5--5--5--5--|--3--3--3--3--3--3--3--3--| 
--3--3--3--3--3--3--3--3--|--1--1--1--1--1--1--1--1--| 
 
 
                                                       
--------------------------|--------------------------| 
--------------------------|--------------------------| 
--------------------------|--5--5--5--5--5--5--5--5--| 
--5--5--5--5--5--5--5--5--|--5--5--5--5--5--5--5--5--| 
--5--5--5--5--5--5--5--5--|--3--3--3--3--3--3--3--3--| 
--3--3--3--3--3--3--3--3--|--------------------------| 
 
 
                                                       
--------------------------|--------------------------| 
--------------------------|--------------------------| 
--------------------------|--------------------------| 
--5--5--5--5--5--5--5--5--|--3--3--3--3--3--3--3--3--| 
--5--5--5--5--5--5--5--5--|--3--3--3--3--3--3--3--3--| 
--3--3--3--3--3--3--3--3--|--1--1--1--1--1--1--1--1--| 
 
 
                                                                   
--------------------------|-------------------|------------------| 
--------------------------|-------------------|------------------| 
--------------------------|--5----------------|------------------| 
--5--5--5--5--5--5--5--5--|--5----------------|------------------| 
--5--5--5--5--5--5--5--5--|--3----------------|------------------| 
--3--3--3--3--3--3--3--3--|-------------------|------------------| 
 
 
                                                                  
------------------|------------------|--------------------------| 
------------------|------------------|--------------------------| 
------------------|------------------|--5--5--5--5--5--5--5--5--| 
------------------|------------------|--5--5--5--5--5--5--5--5--| 
------------------|------------------|--3--3--3--3--3--3--3--3--| 
------------------|------------------|--------------------------| 
 
 
                                                       
--------------------------|--------------------------| 
--------------------------|--------------------------| 
--5--5--5--5--5--5--5--5--|--------------------------| 
--5--5--5--5--5--5--5--5--|--5--5--5--5--5--5--5--5--| 
--3--3--3--3--3--3--3--3--|--5--5--5--5--5--5--5--5--| 
--------------------------|--3--3--3--3--3--3--3--3--| 
 
 
                                                       
--------------------------|--------------------------| 
--------------------------|--------------------------| 
--------------------------|--5--5--5--5--5--5--5--5--| 
--3--3--3--3--3--3--3--3--|--5--5--5--5--5--5--5--5--| 
--3--3--3--3--3--3--3--3--|--3--3--3--3--3--3--3--3--| 
--1--1--1--1--1--1--1--1--|--------------------------| 
 
 
                                                       
--------------------------|--------------------------| 
--------------------------|--------------------------| 
--5--5--5--5--5--5--5--5--|--------------------------| 
--5--5--5--5--5--5--5--5--|--5--5--5--5--5--5--5--5--| 
--3--3--3--3--3--3--3--3--|--5--5--5--5--5--5--5--5--| 
--------------------------|--3--3--3--3--3--3--3--3--| 
 
 
                                                                   
--------------------------|-------------------|------------------| 
--------------------------|-------------------|------------------| 
--------------------------|--5----------------|------------------| 
--3--3--3--3--3--3--3--3--|--5----------------|------------------| 
--3--3--3--3--3--3--3--3--|--3----------------|------------------| 
--1--1--1--1--1--1--1--1--|-------------------|------------------| 
 
 
                                                                  
------------------|------------------|--------------------------| 
------------------|------------------|--------------------------| 
------------------|------------------|--5-----5-----5-----5-----| 
------------------|------------------|-----5-----5-----5-----5--| 
------------------|------------------|--------------------------| 
------------------|------------------|--------------------------| 
 
 
                                                       
--------------------------|--------------------------| 
--------------------------|--------------------------| 
--4-----4-----7-----7-----|--5-----5-----5-----5-----| 
-----5-----5-----5-----5--|-----5-----5-----5-----5--| 
--------------------------|--------------------------| 
--------------------------|--------------------------| 
 
 
                                                       
--------------------------|--------------------------| 
--------------------------|--------------------------| 
--4-----4-----7-----7-----|--5-----5-----5-----5-----| 
-----5-----5-----5-----5--|-----5-----5-----5-----5--| 
--------------------------|--------------------------| 
--------------------------|--------------------------| 
 
 
                                                       
--------------------------|--------------------------| 
--------------------------|--------------------------| 
--4-----4-----7-----7-----|--5-----5-----5-----5-----| 
-----5-----5-----5-----5--|-----5-----5-----5-----5--| 
--------------------------|--------------------------| 
--------------------------|--------------------------| 
 
 
                                                       
--------------------------|--------------------------| 
--------------------------|--------------------------| 
--4-----4-----7-----7-----|--5-----5-----5-----5-----| 
-----5-----5-----5-----5--|-----5-----5-----5-----5--| 
--------------------------|--------------------------| 
--------------------------|--------------------------| 
 
 
                                                       
--------------------------|--------------------------| 
--------------------------|--------------------------| 
--4-----4-----7-----7-----|--5-----5-----5-----5-----| 
-----5-----5-----5-----5--|-----5-----5-----5-----5--| 
--------------------------|--------------------------| 
--------------------------|--------------------------| 
 
 
                                                       
--------------------------|--------------------------| 
--------------------------|--------------------------| 
--4-----4-----7-----7-----|--5--5--5--5--5--5--5--5--| 
-----5-----5-----5-----5--|--5--5--5--5--5--5--5--5--| 
--------------------------|--3--3--3--3--3--3--3--3--| 
--------------------------|--------------------------| 
 
 
                                                       
--------------------------|--------------------------| 
--------------------------|--------------------------| 
--5--5--5--5--5--5--5--5--|--------------------------| 
--5--5--5--5--5--5--5--5--|--5--5--5--5--5--5--5--5--| 
--3--3--3--3--3--3--3--3--|--5--5--5--5--5--5--5--5--| 
--------------------------|--3--3--3--3--3--3--3--3--| 
 
 
                                                       
--------------------------|--------------------------| 
--------------------------|--------------------------| 
--------------------------|--5--5--5--5--5--5--5--5--| 
--3--3--3--3--3--3--3--3--|--5--5--5--5--5--5--5--5--| 
--3--3--3--3--3--3--3--3--|--3--3--3--3--3--3--3--3--| 
--1--1--1--1--1--1--1--1--|--------------------------| 
 
 
                                                       
--------------------------|--------------------------| 
--------------------------|--------------------------| 
--5--5--5--5--5--5--5--5--|--------------------------| 
--5--5--5--5--5--5--5--5--|--5--5--5--5--5--5--5--5--| 
--3--3--3--3--3--3--3--3--|--5--5--5--5--5--5--5--5--| 
--------------------------|--3--3--3--3--3--3--3--3--| 
 
 
                                                       
--------------------------|--------------------------| 
--------------------------|--------------------------| 
--------------------------|--5--5--5--5--5--5--5--5--| 
--3--3--3--3--3--3--3--3--|--5--5--5--5--5--5--5--5--| 
--3--3--3--3--3--3--3--3--|--3--3--3--3--3--3--3--3--| 
--1--1--1--1--1--1--1--1--|--------------------------| 
 
 
                                                                                
--------------------------|--------------------------|------------------------| 
--------------------------|--------------------------|------------------------| 
--5--5--5--5--5--5--5--5--|--------------------------|------------------------| 
--5--5--5--5--5--5--5--5--|--5--5--5--5--5--5--5--5--|--x--x--3----x--x--3----| 
--3--3--3--3--3--3--3--3--|--5--5--5--5--5--5--5--5--|--x--x--3----x--x--3----| 
--------------------------|--3--3--3--3--3--3--3--3--|--x--x--1----x--x--1----| 
 
 
                                                       
--------------------------|--------------------------| 
--------------------------|--------------------------| 
--5--5--5--5--5--5--5--5--|--5--5--5--5--5--5--5--5--| 
--5--5--5--5--5--5--5--5--|--5--5--5--5--5--5--5--5--| 
--3--3--3--3--3--3--3--3--|--3--3--3--3--3--3--3--3--| 
--------------------------|--------------------------| 
 
 
                                                                              
--------------------------|------------------------|------------------------| 
--------------------------|------------------------|------------------------| 
--------------------------|------------------------|------------------------| 
--5--5--5--5--5--5--5--5--|--x--x--3----x--x--3----|--x--x--3----x--x--3----| 
--5--5--5--5--5--5--5--5--|--x--x--3----x--x--3----|--x--x--3----x--x--3----| 
--3--3--3--3--3--3--3--3--|--x--x--1----x--x--1----|--x--x--1----x--x--1----| 
 
 
                                                            
-------------------|------------------|------------------|| 
-------------------|------------------|------------------|| 
--5----------------|------------------|------------------|| 
--5----------------|------------------|------------------|| 
--3----------------|------------------|------------------|| 
-------------------|------------------|------------------|| 
 
 
Qualquer esclarecimento, mande um e-mail pra [email protected] 
está 100% correta, mas qualquer dúvida, eu esclareço com prazer. 

	  

Search Paypal
auto scroll beats size up size down change color hide chords drawings
tab show chords e-chords YouTube Clip e-chords hide all tabs e-chords go to top tab