Blink 182

home > Blink 182

All The Small Things (Guitar) Tab

Blink 182

Difficulty: BeginnerBeginner

by adhikariayush

tuner correct add songbook print version text version save to e-mail
chordsukulelecavacokeyboardtabbassdrumsharmonicsflute Guitar Pro
chords

All The Small Things (Guitar)

  		All The Small Things              


                                    Blink 182 
Tom Delonge  (Guitar 1) 



     H        E  E  Q      
E||----------------------| 
B||----------------------| 
G||----------------------| 
D||--------------5--3----| 
A||--------------5--3----| 
E||--------------3--1----| 


  E  E  E  E  E  E  E  E    
--------------------------| 
--------------------------| 
--5--5--5--5--5--5--5--5--| 
--5--5--5--5--5--5--5--5--| 
--3--3--3--3--3--3--3--3--| 
--------------------------| 


  E  E  E  E  E  E  E  E    
--------------------------| 
--6--6--6--6--6--6--6--6--| 
--5--5--5--5--5--5--5--5--| 
--3--3--3--3--3--3--3--3--| 
--------------------------| 
--------------------------| 


  E  E  E  E  E  E  E  E    
--------------------------| 
--------------------------| 
--------------------------| 
--5--5--5--5--5--5--5--5--| 
--5--5--5--5--5--5--5--5--| 
--3--3--3--3--3--3--3--3--| 


     PM PM PM PM            
  E  E  E  E  E  E  E  E    
--------------------------| 
--------------------------| 
--------------------------| 
--5--------------3--3--3--| 
--5--0--0--0--0--3--3--3--| 
--3--------------1--1--1--| 


  E  E  E  E  E  E  E  E    
--------------------------| 
--------------------------| 
--5--5--5--5--5--5--5--5--| 
--5--5--5--5--5--5--5--5--| 
--3--3--3--3--3--3--3--3--| 
--------------------------| 


  E  E  E  E  E  E  E  E    
--------------------------| 
--6--6--6--6--6--6--6--6--| 
--5--5--5--5--5--5--5--5--| 
--3--3--3--3--3--3--3--3--| 
--------------------------| 
--------------------------| 


  E  E  E  E  E  E  E  E    
--------------------------| 
--------------------------| 
--------------------------| 
--5--5--5--5--5--5--5--5--| 
--5--5--5--5--5--5--5--5--| 
--3--3--3--3--3--3--3--3--| 


     PM PM PM PM            
  E  E  E  E  E  E  E  E    
--------------------------| 
--------------------------| 
--------------------------| 
--5--------------3--3--3--| 
--5--0--0--0--0--3--3--3--| 
--3--------------1--1--1--| 


  PM PM PM PM PM PM PM PM   
  E  E  E  E  E  E  E  E    
--------------------------| 
--------------------------| 
--------------------------| 
--5--5--5--5--5--5--5--5--| 
--3--3--3--3--3--3--3--3--| 
--------------------------| 


  PM PM PM PM PM PM PM PM   
  E  E  E  E  E  E  E  E    
--------------------------| 
--------------------------| 
--------------------------| 
--------------------------| 
--5--5--5--5--5--5--5--5--| 
--3--3--3--3--3--3--3--3--| 


  PM PM PM PM PM PM PM PM   
  E  E  E  E  E  E  E  E    
--------------------------| 
--------------------------| 
--------------------------| 
--------------------------| 
--3--3--3--3--3--3--3--3--| 
--1--1--1--1--1--1--1--1--| 


  PM PM PM PM PM PM PM PM   
  E  E  E  E  E  E  E  E    
--------------------------| 
--------------------------| 
--------------------------| 
--------------------------| 
--5--5--5--5--5--5--5--5--| 
--3--3--3--3--3--3--3--3--| 


  PM PM PM PM PM PM PM PM   
  E  E  E  E  E  E  E  E    
--------------------------| 
--------------------------| 
--------------------------| 
--5--5--5--5--5--5--5--5--| 
--3--3--3--3--3--3--3--3--| 
--------------------------| 


  PM PM PM PM PM PM PM PM   
  E  E  E  E  E  E  E  E    
--------------------------| 
--------------------------| 
--------------------------| 
--------------------------| 
--5--5--5--5--5--5--5--5--| 
--3--3--3--3--3--3--3--3--| 


  PM PM PM PM PM PM PM PM   
  E  E  E  E  E  E  E  E    
--------------------------| 
--------------------------| 
--------------------------| 
--------------------------| 
--3--3--3--3--3--3--3--3--| 
--1--1--1--1--1--1--1--1--| 


  PM PM PM PM PM PM PM PM   
  E  E  E  E  E  E  E  E    
--------------------------| 
--------------------------| 
--------------------------| 
--------------------------| 
--5--5--5--5--5--5--5--5--| 
--3--3--3--3--3--3--3--3--| 


  PM PM PM PM PM PM PM PM   
  E  E  E  E  E  E  E  E    
--------------------------| 
--------------------------| 
--------------------------| 
--5--5--5--5--5--5--5--5--| 
--3--3--3--3--3--3--3--3--| 
--------------------------| 


  PM PM PM PM PM PM PM PM   
  E  E  E  E  E  E  E  E    
--------------------------| 
--------------------------| 
--------------------------| 
--------------------------| 
--5--5--5--5--5--5--5--5--| 
--3--3--3--3--3--3--3--3--| 


  PM PM PM PM PM PM PM PM   
  E  E  E  E  E  E  E  E    
--------------------------| 
--------------------------| 
--------------------------| 
--------------------------| 
--3--3--3--3--3--3--3--3--| 
--1--1--1--1--1--1--1--1--| 


  PM PM PM PM PM PM PM PM   
  E  E  E  E  E  E  E  E    
--------------------------| 
--------------------------| 
--------------------------| 
--------------------------| 
--5--5--5--5--5--5--5--5--| 
--3--3--3--3--3--3--3--3--| 


  PM PM PM PM PM PM PM PM   
  E  E  E  E  E  E  E  E    
--------------------------| 
--------------------------| 
--------------------------| 
--5--5--5--5--5--5--5--5--| 
--3--3--3--3--3--3--3--3--| 
--------------------------| 


  PM PM PM PM PM PM PM PM   
  E  E  E  E  E  E  E  E    
--------------------------| 
--------------------------| 
--------------------------| 
--------------------------| 
--5--5--5--5--5--5--5--5--| 
--3--3--3--3--3--3--3--3--| 


  PM PM PM PM PM PM PM PM   
  E  E  E  E  E  E  E  E    
--------------------------| 
--------------------------| 
--------------------------| 
--------------------------| 
--3--3--3--3--3--3--3--3--| 
--1--1--1--1--1--1--1--1--| 


  PM PM PM PM PM PM PM PM PM   
  E  E  E  E  E  E  E  S  S    
-----------------------------| 
-----------------------------| 
-----------------------------| 
-----------------------------| 
--5--5--5--5--5--5--5--5--5--| 
--3--3--3--3--3--3--3--3--3--| 


  W                   W                  
-------------------|-------------------| 
-------------------|-------------------| 
--5----------------|--L----------------| 
--5----------------|--L----------------| 
--3----------------|--L----------------| 
-------------------|-------------------| 


  W                   W                  
-------------------|-------------------| 
-------------------|-------------------| 
--L----------------|--L----------------| 
--L----------------|--L----------------| 
--L----------------|--L----------------| 
-------------------|-------------------| 


  E  E  E  E  E  E  E  E    
--------------------------| 
--------------------------| 
--5--5--5--5--5--5--5--5--| 
--5--5--5--5--5--5--5--5--| 
--3--3--3--3--3--3--3--3--| 
--------------------------| 


  E  E  E  E  E  E  E  E    
--------------------------| 
--------------------------| 
--5--5--5--5--5--5--5--5--| 
--5--5--5--5--5--5--5--5--| 
--3--3--3--3--3--3--3--3--| 
--------------------------| 


  E  E  E  E  E  E  E  E    
--------------------------| 
--------------------------| 
--------------------------| 
--5--5--5--5--5--5--5--5--| 
--5--5--5--5--5--5--5--5--| 
--3--3--3--3--3--3--3--3--| 


  E  E  E  E  E  E  E  E    
--------------------------| 
--------------------------| 
--------------------------| 
--3--3--3--3--3--3--3--3--| 
--3--3--3--3--3--3--3--3--| 
--1--1--1--1--1--1--1--1--| 


  E  E  E  E  E  E  E  E    
--------------------------| 
--------------------------| 
--5--5--5--5--5--5--5--5--| 
--5--5--5--5--5--5--5--5--| 
--3--3--3--3--3--3--3--3--| 
--------------------------| 


  E  E  E  E  E  E  E  E    
--------------------------| 
--------------------------| 
--5--5--5--5--5--5--5--5--| 
--5--5--5--5--5--5--5--5--| 
--3--3--3--3--3--3--3--3--| 
--------------------------| 


  E  E  E  E  E  E  E  E    
--------------------------| 
--------------------------| 
--------------------------| 
--5--5--5--5--5--5--5--5--| 
--5--5--5--5--5--5--5--5--| 
--3--3--3--3--3--3--3--3--| 


  E  E  E  E  E  E  E  E    
--------------------------| 
--------------------------| 
--------------------------| 
--3--3--3--3--3--3--3--3--| 
--3--3--3--3--3--3--3--3--| 
--1--1--1--1--1--1--1--1--| 


  E  E  E  E  E  E  E  E    
--------------------------| 
--------------------------| 
--5--5--5--5--5--5--5--5--| 
--5--5--5--5--5--5--5--5--| 
--3--3--3--3--3--3--3--3--| 
--------------------------| 


  E  E  E  E  E  E  E  E    
--------------------------| 
--6--6--6--6--5--5--5--5--| 
--5--5--5--5--5--5--5--5--| 
--3--3--3--3--2--2--2--2--| 
--------------------------| 
--------------------------| 


  E  E  E  E  E  E  E  E    
--------------------------| 
--------------------------| 
--------------------------| 
--5--5--5--5--5--5--5--5--| 
--5--5--5--5--5--5--5--5--| 
--3--3--3--3--3--3--3--3--| 


     PM PM PM PM            
  E  E  E  E  E  E  E  E    
--------------------------| 
--------------------------| 
--------------------------| 
--5--------------3--3--3--| 
--5--0--0--0--0--3--3--3--| 
--3--------------1--1--1--| 


  E  E  E  E  E  E  E  E    
--------------------------| 
--------------------------| 
--5--5--5--5--5--5--5--5--| 
--5--5--5--5--5--5--5--5--| 
--3--3--3--3--3--3--3--3--| 
--------------------------| 


  E  E  E  E  E  E  E  E    
--------------------------| 
--6--6--6--6--5--5--5--5--| 
--5--5--5--5--5--5--5--5--| 
--3--3--3--3--2--2--2--2--| 
--------------------------| 
--------------------------| 


  E  E  E  E  E  E  E  E    
--------------------------| 
--------------------------| 
--------------------------| 
--5--5--5--5--5--5--5--5--| 
--5--5--5--5--5--5--5--5--| 
--3--3--3--3--3--3--3--3--| 


     PM PM PM PM            
  E  E  E  E  E  E  E  E    
--------------------------| 
--------------------------| 
--------------------------| 
--5--------------3--3--3--| 
--5--0--0--0--0--3--3--3--| 
--3--------------1--1--1--| 


  PM PM PM PM PM PM PM PM   
  E  E  E  E  E  E  E  E    
--------------------------| 
--------------------------| 
--------------------------| 
--5--5--5--5--5--5--5--5--| 
--3--3--3--3--3--3--3--3--| 
--------------------------| 


  PM PM PM PM PM PM PM PM   
  E  E  E  E  E  E  E  E    
--------------------------| 
--------------------------| 
--------------------------| 
--------------------------| 
--5--5--5--5--5--5--5--5--| 
--3--3--3--3--3--3--3--3--| 


  PM PM PM PM PM PM PM PM   
  E  E  E  E  E  E  E  E    
--------------------------| 
--------------------------| 
--------------------------| 
--------------------------| 
--3--3--3--3--3--3--3--3--| 
--1--1--1--1--1--1--1--1--| 


  PM PM PM PM PM PM PM PM   
  E  E  E  E  E  E  E  E    
--------------------------| 
--------------------------| 
--------------------------| 
--------------------------| 
--5--5--5--5--5--5--5--5--| 
--3--3--3--3--3--3--3--3--| 


  PM PM PM PM PM PM PM PM   
  E  E  E  E  E  E  E  E    
--------------------------| 
--------------------------| 
--------------------------| 
--5--5--5--5--5--5--5--5--| 
--3--3--3--3--3--3--3--3--| 
--------------------------| 


  PM PM PM PM PM PM PM PM   
  E  E  E  E  E  E  E  E    
--------------------------| 
--------------------------| 
--------------------------| 
--------------------------| 
--5--5--5--5--5--5--5--5--| 
--3--3--3--3--3--3--3--3--| 


  PM PM PM PM PM PM PM PM   
  E  E  E  E  E  E  E  E    
--------------------------| 
--------------------------| 
--------------------------| 
--------------------------| 
--3--3--3--3--3--3--3--3--| 
--1--1--1--1--1--1--1--1--| 


  PM PM PM PM PM PM PM PM PM   
  E  E  E  E  E  E  E  S  S    
-----------------------------| 
-----------------------------| 
-----------------------------| 
-----------------------------| 
--5--5--5--5--5--5--5--5--5--| 
--3--3--3--3--3--3--3--3--3--| 


  W                   W                  
-------------------|-------------------| 
-------------------|-------------------| 
--5----------------|--L----------------| 
--5----------------|--L----------------| 
--3----------------|--L----------------| 
-------------------|-------------------| 


  W                   W                  
-------------------|-------------------| 
-------------------|-------------------| 
--L----------------|--L----------------| 
--L----------------|--L----------------| 
--L----------------|--L----------------| 
-------------------|-------------------| 


  E  E  E  E  E  E  E  E    
--------------------------| 
--------------------------| 
--5--5--5--5--5--5--5--5--| 
--5--5--5--5--5--5--5--5--| 
--3--3--3--3--3--3--3--3--| 
--------------------------| 


  E  E  E  E  E  E  E  E    
--------------------------| 
--------------------------| 
--5--5--5--5--5--5--5--5--| 
--5--5--5--5--5--5--5--5--| 
--3--3--3--3--3--3--3--3--| 
--------------------------| 


  E  E  E  E  E  E  E  E    
--------------------------| 
--------------------------| 
--------------------------| 
--5--5--5--5--5--5--5--5--| 
--5--5--5--5--5--5--5--5--| 
--3--3--3--3--3--3--3--3--| 


  E  E  E  E  E  E  E  E    
--------------------------| 
--------------------------| 
--------------------------| 
--3--3--3--3--3--3--3--3--| 
--3--3--3--3--3--3--3--3--| 
--1--1--1--1--1--1--1--1--| 


  E  E  E  E  E  E  E  E    
--------------------------| 
--------------------------| 
--5--5--5--5--5--5--5--5--| 
--5--5--5--5--5--5--5--5--| 
--3--3--3--3--3--3--3--3--| 
--------------------------| 


  E  E  E  E  E  E  E  E    
--------------------------| 
--------------------------| 
--5--5--5--5--5--5--5--5--| 
--5--5--5--5--5--5--5--5--| 
--3--3--3--3--3--3--3--3--| 
--------------------------| 


  E  E  E  E  E  E  E  E    
--------------------------| 
--------------------------| 
--------------------------| 
--5--5--5--5--5--5--5--5--| 
--5--5--5--5--5--5--5--5--| 
--3--3--3--3--3--3--3--3--| 


  E  E  E  E  E  E  E  E    
--------------------------| 
--------------------------| 
--------------------------| 
--3--3--3--3--3--3--3--3--| 
--3--3--3--3--3--3--3--3--| 
--1--1--1--1--1--1--1--1--| 


  mp                                     
  W                   W                  
-------------------|-------------------| 
-------------------|-------------------| 
--5----------------|--L----------------| 
--5----------------|--L----------------| 
--3----------------|--L----------------| 
-------------------|-------------------| 


   Clean                                   
   ^                    ^                  
   W                    W                  
--------------------|--------------------| 
--------------------|--------------------| 
--10----------------|--12----------------| 
--10----------------|--12----------------| 
---8----------------|--10----------------| 
--------------------|--------------------| 


   ^                                      
   W                   W                  
--------------------|-------------------| 
--------------------|-------------------| 
--------------------|-------------------| 
--10----------------|--L----------------| 
--10----------------|--L----------------| 
---8----------------|--L----------------| 


   ^                    ^                  
   W                    W                  
--------------------|--------------------| 
--------------------|--------------------| 
--10----------------|--12----------------| 
--10----------------|--12----------------| 
---8----------------|--10----------------| 
--------------------|--------------------| 


   ^                                      
   W                   W                  
--------------------|-------------------| 
--------------------|-------------------| 
--------------------|-------------------| 
--10----------------|--L----------------| 
--10----------------|--L----------------| 
---8----------------|--L----------------| 


   ^                    ^                  
   W                    W                  
--------------------|--------------------| 
--------------------|--------------------| 
--10----------------|--12----------------| 
--10----------------|--12----------------| 
---8----------------|--10----------------| 
--------------------|--------------------| 


   ^                                      
   W                   W                  
--------------------|-------------------| 
--------------------|-------------------| 
--------------------|-------------------| 
--10----------------|--L----------------| 
--10----------------|--L----------------| 
---8----------------|--L----------------| 


   ^                    ^                  
   W                    W                  
--------------------|--------------------| 
--------------------|--------------------| 
--10----------------|--12----------------| 
--10----------------|--12----------------| 
---8----------------|--10----------------| 
--------------------|--------------------| 


  E  E  E  E  E  E  E  E    
--------------------------| 
--------------------------| 
--5--5--5--5--5--5--5--5--| 
--5--5--5--5--5--5--5--5--| 
--3--3--3--3--3--3--3--3--| 
--------------------------| 


  E  E  E  E  E  E  E  E    
--------------------------| 
--------------------------| 
--5--5--5--5--5--5--5--5--| 
--5--5--5--5--5--5--5--5--| 
--3--3--3--3--3--3--3--3--| 
--------------------------| 


  E  E  E  E  E  E  E  E    
--------------------------| 
--------------------------| 
--------------------------| 
--5--5--5--5--5--5--5--5--| 
--5--5--5--5--5--5--5--5--| 
--3--3--3--3--3--3--3--3--| 


  E  E  E  E  E  E  E  E    
--------------------------| 
--------------------------| 
--------------------------| 
--3--3--3--3--3--3--3--3--| 
--3--3--3--3--3--3--3--3--| 
--1--1--1--1--1--1--1--1--| 


  E  E  E  E  E  E  E  E    
--------------------------| 
--------------------------| 
--5--5--5--5--5--5--5--5--| 
--5--5--5--5--5--5--5--5--| 
--3--3--3--3--3--3--3--3--| 
--------------------------| 


  E  E  E  E  E  E  E  E    
--------------------------| 
--------------------------| 
--5--5--5--5--5--5--5--5--| 
--5--5--5--5--5--5--5--5--| 
--3--3--3--3--3--3--3--3--| 
--------------------------| 


  E  E  E  E  E  E  E  E    
--------------------------| 
--------------------------| 
--------------------------| 
--5--5--5--5--5--5--5--5--| 
--5--5--5--5--5--5--5--5--| 
--3--3--3--3--3--3--3--3--| 


  E  E  E  E  E  E  E  E    
--------------------------| 
--------------------------| 
--------------------------| 
--3--3--3--3--3--3--3--3--| 
--3--3--3--3--3--3--3--3--| 
--1--1--1--1--1--1--1--1--| 


  E  E  E  E  E  E  E  E    
--------------------------| 
--------------------------| 
--5--5--5--5--5--5--5--5--| 
--5--5--5--5--5--5--5--5--| 
--3--3--3--3--3--3--3--3--| 
--------------------------| 


  E  E  E  E  E  E  E  E    
--------------------------| 
--------------------------| 
--5--5--5--5--5--5--5--5--| 
--5--5--5--5--5--5--5--5--| 
--3--3--3--3--3--3--3--3--| 
--------------------------| 


  E  E  E  E  E  E  E  E    
--------------------------| 
--------------------------| 
--------------------------| 
--5--5--5--5--5--5--5--5--| 
--5--5--5--5--5--5--5--5--| 
--3--3--3--3--3--3--3--3--| 


  PM PM      PM PM        
  E  E  Q    E  E  Q      
------------------------| 
------------------------| 
------------------------| 
--------3----------3----| 
--------3----------3----| 
--1--1--1----1--1--1----| 


  E  E  E  E  E  E  E  E    
--------------------------| 
--------------------------| 
--5--5--5--5--5--5--5--5--| 
--5--5--5--5--5--5--5--5--| 
--3--3--3--3--3--3--3--3--| 
--------------------------| 


  E  E  E  E  E  E  E  E    
--------------------------| 
--------------------------| 
--5--5--5--5--5--5--5--5--| 
--5--5--5--5--5--5--5--5--| 
--3--3--3--3--3--3--3--3--| 
--------------------------| 


  E  E  E  E  E  E  E  E    
--------------------------| 
--------------------------| 
--------------------------| 
--5--5--5--5--5--5--5--5--| 
--5--5--5--5--5--5--5--5--| 
--3--3--3--3--3--3--3--3--| 


  PM PM      PM PM        
  E  E  Q    E  E  Q      
------------------------| 
------------------------| 
------------------------| 
--------3----------3----| 
--------3----------3----| 
--1--1--1----1--1--1----| 


  PM PM      PM PM                            
  E  E  Q    E  E  Q       W                  
------------------------|-------------------| 
------------------------|-------------------| 
------------------------|--5----------------| 
--------3----------3----|--5----------------| 
--------3----------3----|--3----------------| 
--1--1--1----1--1--1----|-------------------| 


  W                   W                  
-------------------|-------------------| 
-------------------|-------------------| 
--L----------------|--L----------------| 
--L----------------|--L----------------| 
--L----------------|--L----------------| 
-------------------|-------------------| 


                      the end            
  W                   W                  
-------------------|-------------------| 
-------------------|-------------------| 
--L----------------|-------------------| 
--L----------------|-------------------| 
--L----------------|-------------------| 
-------------------|-------------------| 


  W                   
-------------------|| 
-------------------|| 
-------------------|| 
-------------------|| 
-------------------|| 
-------------------|| 




Duration Legend 
--------------- 
W - whole 
H - half 
Q - quarter 
E - 8th 
S - 16th 
T - 32nd 
X - 64th 
. - note dotted 
|-n-|  - n-tuplets 


Tablature Legend 
---------------- 
L - tied note 
x - dead note 
g - grace note 
(n) - ghost note 
> - accentuded note 
NH - natural harmonic 
AH - artificial harmonic 
TH - tapped harmonic 
SH - semi harmonic 
PH - pitch harmonic 
h - hammer on 
p - pull off 
b - bend 
br - bendRelease 
pb - preBend 
pbr - preBendRelease 
brb - bendReleaseBend 
\n/ - tremolo bar dip 
\n - tremolo bar dive 
-/n - tremolo bar Release up 
/n\ - tremolo bar inverted dip 
/n - tremolo bar return 
-\n - tremolo bar Release down 
S - shift slide 
s - legato slide 
/ -  slide into from below or out of upwards 
\ -  slide into from above or out of downwards 
~ - vibrato 
W - wide vibrato 
tr - trill 
TP - tremolo picking 
T - tapping 
S - slap 
P - pop 
< - fade in 
^ - brush up 
v - brush down 


	  

Full key step upFull key step up
Half key step upHalf key step up
Half key step downHalf key step down
Full key step downFull key step down
Search Paypal
auto scroll beats size up size down change color hide chords drawings
tab show chords e-chords YouTube Clip e-chords hide all tabs e-chords go to top tab