Blind Guardian

Gandalf's Rebirth

Blind Guardian

tabs Expert expert

save to print version add songbook text version e-mail correct tuner
chordsukulelecavacokeyboardtabbassdrumsharmonicaflute Guitar Pro
close

there isn't a video lesson for this song

chords

Gandalf's Rebirth

Year: 2005 - Album: Battalions of Fear

	  		 
Guitar 1 (Eb) 
Guitar add (Eb) an octave below in some parts 
Guitar 2 plays the following chords: 
 
 Em5     C5      B5     G5     D5     Gm5     Fm5     E5   
|--------------------------------------------------------| 
|--------------------------------------------------------| 
|-9------5-------4-------------7-------12------11--------| 
|-9------5-------4------5------7-------12------11------2-| 
|-7------3-------2------5------5-------10-------9------2-| 
|-----------------------3------------------------------0-| 
 
Explanations: 
h = hammer on 
p = pull off 
tr = trill 
b = bend 
r = release bend 
br = bend then release 
}}} = palhetada 
~ = vibrato 
/ = slide 
 
 
eb|----------------------------------|-------------------------------|---------------------------| 
Bb|-15-13-11-13-11-10-11-10-8-10-8-7-|-13-11-10-11-10-8-10-8-6-8-6-5-|-10-9-10-12----12-11-12-14-| 
Gb|----------------------------------|-------------------------------|---------------------------| 
Db|----------------------------------|-------------------------------|---------------------------| 
Ab|----------------------------------|-------------------------------|---------------------------| 
Eb|----------------------------------|-------------------------------|---------------------------| 
 
------------------------|-------------------------------------------------------| 
-8-7-8-10----10-9-10-12-|-15-13-15-17-15-13-15-13-11-13-11-10-11-10-8-10-8-6-5~-| 
------------------------|-------------------------------------------------------| 
------------------------|-------------------------------------------------------| 
------------------------|-------------------------------------------------------| 
------------------------|-------------------------------------------------------| 
 
---tr---tr----tr---tr--tr--tr--tr--tr--tr-|---tr---tr----tr--tr---tr--tr--tr--tr--tr-| 
-13p12-10p8-12p10-8p7-5p3-6p5-7p6-8p7-7p6-|-12p10-13p12-8p7-10p8-5p3-6p5-7p6-8p7-7p6-| 
------------------------------------------|------------------------------------------| 
------------------------------------------|------------------------------------------| 
-----bass solo----------------------------|------------------------------------------| 
------------------------------------------|------------------------------------------| 
 
-----------------------------15-|-----------------------------------------------------------------| 
----15----15b-15-13p12----12----|-------13-----------------------------------tr----tr-------------| 
-----------------------14-------|----12----14-14br-------11-12-11------tr--12p11-14p12--14b-14p12-| 
-14----14-----------------------|-14---------------13h14----------14-14p13------------------------| 
--------------------------------|-----------------------------------------------------------------| 
--------------------------------|-----------------------------------------------------------------| 
 
-----------------------------15-|-----------------------------------------------------| 
----15----15b-15-13p12----12----|-12h13-15-13-12--------------------------------------| 
-----------------------14-------|----------------14b-14p12----11-12p11h12p11----------| 
-14----14-----------------------|--------------------------14----------------14-13----| 
--------------------------------|--------------------------------------------------14-| 
--------------------------------|-----------------------------------------------------| 
 
-----------------------------tr---tr------12-14-15-15p14p12---------------15----------------| 
----------------tr----tr---12p11-13p12-15-------------------15-15br-13-12----13-12----------| 
----tr----tr---12p11-14p12---------------------------------------------------------14-12-11-| 
-9/12h14-16p14------------------------------------------------------------------------------| 
--------------------------------------------------------------------------------------------| 
--------------------------------------------------------------------------------------------| 
 
-----------------------------tr---tr-------12-14-15-17-17b-17b-17-15-14-14h15p14-12-14-| 
----------------tr----tr---12p11-13p12-15----------------------------------------------| 
----tr----tr---12p11-14p12-------------------------------------------------------------| 
-9/12h14-16p14-------------------------------------------------------------------------| 
---------------------------------------------------------------------------------------| 
---------------------------------------------------------------------------------------| 
 
------tr----tr----tr----tr----tr---tr---tr---|---tr----tr----tr----tr----tr---tr---tr---| 
-12/17p15-13p12-15p13-12p10-13p12-10p9-12p10-|-17p15-13p12-15p13-12p10-13p12-10p9-12p10-| 
---------------------------------------------|------------------------------------------| 
---------------------------------------------|------------------------------------------| 
---------------------------------------------|------------------------------------------| 
---------------------------------------------|------------------------------------------| 
 
-----------------------------15-|-----------------------------------------------------------------| 
----15----15b-15-13p12----12----|-------13-----------------------------------tr----tr-------------| 
-----------------------14-------|----12----14-14br-------11-12-11------tr--12p11-14p12--14b-14p12-| 
-14----14-----------------------|-14---------------13h14----------14-14p13------------------------| 
--------------------------------|-----------------------------------------------------------------| 
--------------------------------|-----------------------------------------------------------------| 
 
-----------------------------15-|-----------------------------------------------------| 
----15----15b-15-13p12----12----|-12h13-15-13-12--------------------------------------| 
-----------------------14-------|----------------14b-14p12----11-12p11h12p11----------| 
-14----14-----------------------|--------------------------14----------------14-13----| 
--------------------------------|--------------------------------------------------14-| 
--------------------------------|-----------------------------------------------------| 
 
----------------------------------------------|-------------------------------------------| 
-17----15----------------15----12-------------|-13----12-------------13----13-12----------| 
----17----14-14h16h17-------14----12-12h14h16-|----14----14-12p11-------12-------14-12-11-| 
----------------------------------------------|-------------------14----------------------| 
----------------------------------------------|-------------------------------------------| 
----------------------------------------------|-------------------------------------------| 
 Em5                                              C5                D5           Gm5 Fm5 (repeat and repeat) 
------------------------------------------------|-------------------12-14-15-15b-15p14-12-| 
------------------------------------------------|--15b-15b-15b-15br-----------------------| 
----11-12-----------------11-12-14-14b-14p12----|-----------------------------------------| 
-14---------10-12-14---14--------------------14-|-----------------------------------------| 
------------------------------------------------|-----------------------------------------| 
------------------------------------------------|-----------------------------------------| 
  
------------------------------------------------|------------------------------------| 
------------------------------------------------|-15p13p12-13-12---------------------| 
----11-12-----------------11-12-14-14b-14p12----|----------------14-12-11-11br-------| 
-14---------10-12-14---14--------------------14-|------------------------------12----| 
------------------------------------------------|---------------------------------14-| 
------------------------------------------------|------------------------------------| 
                    
------------------------------------------------| 
------------------------------------------------| 
----11-12-----------------11-12-14-14b-14p12----| 
-14---------10-12-14---14--------------------14-| 
------------------------------------------------| 
------------------------------------------------| 
 
------------------12-14-15-17-15-17-17b-15-14-14h15p14-15-17-15-12-|-12b-12~~~~--12b-| 
-15b-15b-15b-15br--------------------------------------------------|-----------------| 
-------------------------------------------------------------------|-----------------| 
-------------------------------------------------------------------|-----------------| 
-------------------------------------------------------------------|-----------------| 
-------------------------------------------------------------------|-----------------| 
 
------------------------------------------------|-------------------12-14-15-15b-15p14-12-| 
------------------------------------------------|--15b-15b-15b-15br-----------------------| 
----11-12-----------------11-12-14-14b-14p12----|-----------------------------------------| 
-14---------10-12-14---14--------------------14-|-----------------------------------------| 
------------------------------------------------|-----------------------------------------| 
------------------------------------------------|-----------------------------------------| 
 
------------------------------------------------|------------------------------------| 
------------------------------------------------|-15p13p12-13-12---------------------| 
----11-12-----------------11-12-14-14b-14p12----|----------------14-12-11-11br-------| 
-14---------10-12-14---14--------------------14-|------------------------------12----| 
------------------------------------------------|---------------------------------14-| 
------------------------------------------------|------------------------------------| 
Em5                              D5                          C5         B5     G5       E5    
-------------------------------|-------------------------12--14-15-15b-15p12-------------------| 
-12}}}-------12}}}-------12~~~-|-12}}}-------12}}}----12---------------------15b--15p13--------| 
-------12}}}-------12}}}-------|-------12}}}-------12-----------------------------------15br~~-| 
-------------------------------|---------------------------------------------------------------| 
-------------------------------|---------------------------------------------------------------| 
-------------------------------|---------------------------------------------------------------| 
		  

Full key step upFull key step up
Half key step upHalf key step up
Half key step downHalf key step down
Full key step downFull key step down
hide glossary

See also:

tabs Scorpions - Dust in the wind tabs Blind Guardian - Harvest of Sorrow tabs Edguy - Hallowed tabs Scorpions - Wind of change (solo) tabs Blind Guardian - Bright Eyes (ver. 2) tabs Blind Guardian - Majesty
e-chords

Other versions:

tabs Blind Guardian - Gandalf's Rebirth
auto scroll beats size up size down change color hide chords drawings
tab show chords e-chords YouTube Clip e-chords hide all tabs e-chords go to top tab

share