Blind Guardian

Banish from Sanctuary

Blind Guardian

tabs

by  VAN_FALCO

save to print version add songbook text version e-mail correct tuner
chordsukulelecavacokeyboardtabbassdrumsharmonicaflute Guitar Pro
close

there isn't a video lesson for this song

chords

Banish from Sanctuary

Year: 1993 - Album: Follow the Blind

	  		                                  Transcribed by 
                   Mikko Issakainen ([email protected]) 
 
Tempo = 352 
 
                                      ----- 3 -----     1   2   3   4 
|-----------------|-----------------|-----------------|-----------------| 
|-----------------|-----------------|-----------------|-----------------| 
|-----------------|-----------------|-----------------|-----------------| 
|-----------------|-----------------|-----------------|-----------------| 
|-0-0-0-0-0-0-0-0-|-0-0-0-0-0-0-0-0-|-3-----5-----6---|-5---3-----------| 
|-----------------|-----------------|-----------------|-----------------| 
 
                                      ----- 3 -----     1   2   3   4 
|-----------------|-----------------|-----------------|-----------------| 
|-----------------|-----------------|-----------------|-----------------| 
|-----------------|-----------------|-5-----7-----8---|-7---5-----------| 
|-7-7-7-7-7-7-7-7-|-7-7-7-7-7-7-7-7-|-----------------|-----------------| 
|-----------------|-----------------|-----------------|-----------------| 
|-----------------|-----------------|-----------------|-----------------| 
 
                                      ----- 3 -----     1   2   3   4 
|-5-5-5-5-5-5-5-5-|-5-5-5-5-5-5-5-5-|-8-----10----11--|-10--8---\\------| 
|-----------------|-----------------|-----------------|-----------------| 
|-----------------|-----------------|-----------------|-----------------| 
|-----------------|-----------------|-----------------|-----------------| 
|-----------------|-----------------|-----------------|-----------------| 
|-----------------|-----------------|-----------------|-----------------| 
 
        In deserts I was preaching 
  1   2   3   4     1   2   3   4     1   2   3   4     1   2   3   4     
      Pm------------------------------------------------------- 
|-----------------|-----------------|-----------------|-----------------| 
|-----------------|-----------------|-----------------|-----------------| 
|-6---------------|-----------------|-----------------|---------6---7---| 
|-6---------------|-----------------|-----------------|---------6---7---| 
|-4---4-4-4-4-4-4-|-4-4-4-4-4-4-4-4-|-4-4-4-4-4-4-4-4-|-4-4-4-4-4---5---| 
|-----------------|-----------------|-----------------|-----------------| 
 
  1   2   3   4     1   2   3   4     1   2   3   4     1   2   3   4     
      Pm------------------------------------------------------- 
|-----------------|-----------------|-----------------|-----------------| 
|-----------------|-----------------|-----------------|-----------------| 
|-6---------------|-----------------|-----------------|---------6-------| 
|-6---------------|-----------------|-----------------|---------6-------| 
|-4---4-4-4-4-4-4-|-4-4-4-4-4-4-4-4-|-4-4-4-4-4-4-4-4-|-4-4-4-4-4-------| 
|-----------------|-----------------|-----------------|-----------------| 
 
  1   2   3   4     1   2   3   4     1   2   3   4     1   2   3   4     
      Pm------------------------------------------------------- 
|-----------------|-----------------|-----------------|-----------------| 
|-----------------|-----------------|-----------------|-----------------| 
|-2---------------|-----------------|-----------------|---------2-------| 
|-2---------------|-----------------|-----------------|---------2-------| 
|-0---0-0-0-0-0-0-|-0-0-0-0-0-0-0-0-|-0-0-0-0-0-0-0-0-|-0-0-0-0-0-------| 
|-----------------|-----------------|-----------------|-----------------| 
   
  1   2   3   4     1   2   3   4     1   2   3   4     1   2   3   4     
      Pm------------------------------------------------------- 
|-----------------|-----------------|-----------------|-----------------| 
|-----------------|-----------------|-----------------|-----------------| 
|-6---------------|-----------------|-----------------|---------6-------| 
|-6---------------|-----------------|-----------------|---------6-------| 
|-4---4-4-4-4-4-4-|-4-4-4-4-4-4-4-4-|-4-4-4-4-4-4-4-4-|-4-4-4-4-4-------| 
|-----------------|-----------------|-----------------|-----------------| 
   
 
  1   2   3   4     1   2   3   4     1   2   3   4     1   2   3   4     
|-----------------|-----------------|-----------------|-----------------| 
|-----------------|-----------------|-----------------|-----------------| 
|-----------------|-----------------|-----------------|-----------------| 
|---------7-7-7-7-|-6-6-6-6---------|-9-9-9-9-9-9-7-7-|-7-7-7-7-6-6-6-6-| 
|-9-9-9-9---------|---------9-9-9-9-|-----------------|-----------------| 
|-----------------|-----------------|-----------------|-----------------| 
| 
| Pm-(Both Guitars)---------------------------------------------------- 
|-----------------|-----------------|-----------------|-----------------| 
|-----------------|-----------------|-----------------|-----------------| 
|-----------------|-----------------|-----------------|-----------------| 
|-----------------|-----------------|-----------------|-----------------| 
|-----------------|-----------------|-----------------|-----------------| 
|-2-2-2-2-2-2-2-2-|-2-2-2-2-2-2-2-2-|-2-2-2-2-2-2-2-2-|-2-2-2-2-2-2-2-2-| 
   
  1   2   3   4     1   2   3   4     1   2   3   4     1   2   3   4     
|-----------------|-----------------|-----------------|-----------------| 
|-----------------|-----------------|-----------------|-----------------| 
|-----------------|-----------------|-----------------|-----------------| 
|---------7-------|-6-------4-------|--------Pm-------|---------4-------| 
|-5---------------|-----------------|-5-------5-------|-7---------------| 
|-----------------|-----------------|-----------------|-----------------| 
| 
| 
|-----------------|-----------------|-----------------|-----------------| 
|-----------------|-----------------|-----------------|-----------------| 
|-----------------|-----------------|-----------------|-----------------| 
|-----------------|-----------------|-----------------|-----------------| 
|-5-5-5-5-5-5-5-5-|-5-5-5-5-5-5-5-5-|-5-5-5-5-5-5-5-5-|-5-5-5-5-5-5-5-5-| 
|-----------------|-----------------|-----------------|-----------------| 
 
  1   2   3   4      1   2   3   4(6x)  1   2   3   4  
|-----------------||-----------------||-----------------| 
|-----------------||-----------------||-----------------| 
|-----------------||*---------------*||-----------------| 
|-4-4-4-4-4-4-4-4-||*4-4-4-4-4-4-4-4*||-4-4-4-4-4-------| 
|-4---------------||-----------------||---------4-------| 
|-2-2-2-2-2-2-2-2-||-2-2-2-2-2-2-2-2-||-2-2-2-2-2-------| 
 
   
|--------|--------|--------|--------|--------|--------|--------|--------| 
|--------|--------|--------|--------|--------|--------|--------|--------| 
|-6~~----|--------|/5~~----|--------|--------|--------|--------|--------| 
|--------|--------|--------|--------|-4~~----|--------|--------|--------| 
|--------|--------|--------|--------|--------|--------|--------|--------| 
|--------|--------|--------|--------|--------|--------|-2~~----|--------| 
|        
|F#5                F5                B5               F#5 
| /      |        | /      |        | /      |        | /      |        | 
 
  1   2   3   4       1   2   3   4     1      2   3   4     1   2   3   4 
|-------------------|-----------------|--H-P--------------|--------------9--| 
|---------------H---|-9-------9---10--|-9-10-9------------|--9---10--12-----| 
|-----11--11--10-11-|-----------------|--------11--10--11-|-----------------| 
|-11----------------|-----11----------|-------------------|-----------------| 
|-------------------|-----------------|-------------------|-----------------| 
|-------------------|-----------------|-------------------|-----------------| 
| 
|F#5                                    F5 
| /                 |             /   | /                 |              /  | 
 
  1   2     3    4     1   2   3   4     1   2   3   4     1   2   3   4 
|-------H--P--P------|-----------------|-----------------|-----------------| 
|-12--10-12-10-9-12--|-10--9---10--10--|-9---------------|-----------------| 
|--------------------|-----------------|-----10--9---10--|(10)-------------| 
|--------------------|-----------------|-----------------|-----------------| 
|--------------------|-----------------|-----------------|-----------------| 
|--------------------|-----------------|-----------------|-----------------| 
| 
| B5                                   F#5 
| /                  |               / | /               |                 | 
 
  1   2   3   4     1   2   3   4     1   2   3   4     1   2   3   4     
|-----------------|-----------------|-----------------|-----------------| 
|-----------------|-----------------|-----------------|-----------------| 
|-6---------------|-----------------|-----------------|-----------------| 
|-6---------------|-----------------|-----------------|-----------------| 
|-4---4-4-4-4-4-4-|-4-4-4-4-4-4-4-4-|-4-4-4-4-4-4-4-4-|-4-4-4-4-4-4-4-4-| 
|-----------------|-----------------|-----------------|-----------------| 
 
  1   2   3   4     1   2   3   4     1   2   3   4     1   2   3   4     
|-----------------|-----------------|-----------------|-----------------| 
|-----------------|-----------------|-----------------|-----------------| 
|-7---------------|-----------------|-----------------|-----------------| 
|-7---------------|-----------------|-----------------|-----------------| 
|-5---5-5-5-5-5-5-|-5-5-5-5-5-5-5-5-|-5-5-5-5-5-5-5-5-|-5-5-5-5-5-5-5-5-| 
|-----------------|-----------------|-----------------|-----------------| 
 
Chorus: 
  No      -       o          No  turning   ba  -  ck         I'm   
 F#5             G#5              E5             C#5 
| /     |       | /     |       | /     |       | /     |       | 
  
 ba       -     nished      from sanctua     -    ry 
 F#5             G#5              E5             C#5 
| /     |       | /     |       | /     |       | /     |       | 
 
 F#5             G#5              E5             C#5 
| /     |       | /     |       | /     |       | /     |       | 
  
 F#5             G#5              E5             C#5 
| /     |       | /     |       | /     |       | /     |       | 
 
  1   2   3   4     1   2   3   4       1   2   3   4     1   2   3   4     
|-----------------|-------------------|-----------------|-------------------| 
|-----------------|-------------------|-----------------|-------------------| 
|-----------------|--------------H-P--|-----------------|--------------H-P--| 
|-----7---6-------|-9-------7---6-7-6-|-----7---5-------|-------------6-7-6-| 
|-9-----------9---|-------------------|-9-----------9---|-7-------9---------| 
|-----------------|-------------------|-----------------|-------------------| 
 
  1   2   3   4     1   2   3   4       1   2   3   4     1   2   3   4     
|-----------------|-------------------|-----------------|-----------------| 
|-----------------|-------------------|-----------------|-----------------| 
|-----------------|--------------H-P--|-----------------|-----------------| 
|-----7---6-------|-9-------7---6-7-6-|-----7---5-------|-----------------| 
|-9-----------9---|-------------------|-9-----------9---|-7-------9-------| 
|-----------------|-------------------|-----------------|-----------------| 
                                                                       
   1   2   3   4     1   2   3   4     1   2   3   4     1   2   3   4     
  D5                                  C#5 
   Pm------------------------------- 
||-----------------|-----------------|-----------------|-----------------| 
||-----------------|-----------------|-----------------|-----------------| 
||*----------------|-----------------|-Ah--Ah------Ah--|-----------------| 
||*----------------|-4-4-4-4-6-6-6-6-|-7---7-------6---|-----------------| 
||-5-5-5-5-7-7-7-7-|-----------------|-----------------|-----------------| 
||-----------------|-----------------|-----------------|-----------------| 
 
  1   2   3   4     1   2   3   4     1   2   3   4     1   2   3   4     
  A5                                  A5(7th fr)        G#5   
  Pm------------------------------- 
|-----------------|-----------------|-----------------|-----------------| 
|-----------------|-----------------|-----------------|---H-P-----------| 
|-----------------|---------4-4-4-4-|-6-----------9---|--6-9-6--6-------| 
|-4-4-4-4--6-6-6-6|-7-7-7-7---------|-----------------|-------------9---| 
|-----------------|-----------------|-----------------|-----------------| 
|-----------------|-----------------|-----------------|-----------------| 
 
  1   2   3   4     1   2   3   4     1   2   3   4     1   2   3   4     
 D5                                  C#5 
|-----------------|-----5---4-------|-----------------|---------S-------| 
|---------7-------|-------------7---|-5---------------|---------\-------| 
|-6---------------|-----------------|-----------------|-----------------| 
|-----------------|-----------------|-----------------|-----------------| 
|-----------------|-----------------|-----------------|-----------------| 
|-----------------|-----------------|-----------------|-----------------| 
   
                                    1-> 
  1   2   3   4     1   2   3   4     1   2   3   4     1   2   3   4     
  A                                  F#5 
|-----------------|-----------------|-----------------|-----------------|| 
|-----------------|-----------------|-----------------|-----------------|| 
|-----------------|-----------------|-----------------|----------------*|| 
|-7-----------6---|---------4-------|-------------4---|---------6------*|| 
|-----------------|-----------------|-4---------------|-----------------|| 
|-----------------|-----------------|-----------------|-----------------|| 
   
 2->  
  1   2   3   4     1   2   3   4     
|-----------------|-----------------| 
|-----------------|-----------------| 
|-----------------|---------4-------| 
|-6-----------7---|-----------------| 
|-----------------|-----------------| 
|-----------------|-----------------| 
 
 
Chorus 
 
  1   2   3   4     1   2   3   4     1   2   3   4     1   2   3   4     
||-----------------|-----------------|-----------------|-----------------| 
||-----------------|-----------------|-----------------|-----------------| 
||*11------11--13--|-/\/\/\/\/\/-----|-13------13--14--|-/\/\/\/\/\/-----| 
||*----11----------|-----------------|-----11----------|-----------------| 
||-----------------|-----------------|-----------------|-----------------| 
||-----------------|-----------------|-----------------|-----------------| 
   
  1   2   3   4     1   2   3   4     1   2   3   4     1   2   3   4     
|-----------------|-----------------|-----------------|-----------------|| 
|-----------------|-----------------|-----------------|-----------------|| 
|-14--11--14--16--|-/\/\/\/\/\/-----|-16--14--13------|----------------*|| 
|-----------------|-----------------|-------------15--|-/\/\/\/\/\/----*|| 
|-----------------|-----------------|-----------------|-----------------|| 
|-----------------|-----------------|-----------------|-----------------|| 
 
 
    T  P  H     T  P  H     T  P  H     T  P  H     T  P  H     T  P  H 
|-21-17-14-17-19-17-14-17-21-17-14-17-19-17-14-17-21-17-14-17-19-17-16-17---| 
|---------------------------------------------------------------------------| 
|--------x------------x-------------x-------------x-------------------------| 
|---------------------------------------------------------------------------| 
|---------------------------------------------------------------------------| 
|---------------------------------------------------------------------------| 
    T  P  P 
|-21-19-17-16-17b(19)r(17)b(19)r(17)---------------H-H-P----------| 
|-------------------------------------17--17--17-17182018---------| 
|-----------------------------------------------------------------| 
|-----------------------------------------------------------------| 
|-----------------------------------------------------------------| 
|-----------------------------------------------------------------| 
 
 
 
****************************************************************************** 
 
 
 
Tittle: Banish From Sanctuary 
Album:  Follow The Blind 
exported from midi 
------------------------------------------------------------------------ 
notes: try to listen to midi before play this 
         
                         
                            Banish From Sanctuary 
                              by Blind Guardian  
 
 
Intro 
                                                                
E||---------------------------------|-------------------------| 
B||---------------------------------|-------------------------| 
G||---------------------------------|----------2--------------| 
D||---------------------------------|--4---6---0---6---4------| 
A||--6------------------------------|--2---4-------4---2------| 
E||--4--4-4-4-4-4-4-4-4-4-4-4-4-4-4-|-------------------------| 
 
 
                                                             
---------------------------------|-------------------------| 
---------------------------------|-------------------------| 
---------------------------------|----------2--------------| 
---------------------------------|--4---6---0---6---4------| 
--6------------------------------|--2---4-------4---2------| 
--4--4-4-4-4-4-4-4-4-4-4-4-4-4-4-|-------------------------| 
 
 
                                                              
----------------------------------|-------------------------| 
----------------------------------|--0---2---3---2---0------| 
--1-1-1-1-1-1-1-1-1-1-1-1-1-1-1-1-|-------------------------| 
----------------------------------|-------------------------| 
----------------------------------|-------------------------| 
----------------------------------|-------------------------| 
 
 
                                                               
--4-4-4-4-4-4-4-4-4-4-4-4-4-4-4-4-|--7---9---10---9---7------| 
----------------------------------|--------------------------| 
----------------------------------|--------------------------| 
----------------------------------|--------------------------| 
----------------------------------|--------------------------| 
----------------------------------|--------------------------| 
 
Verse  
                                                                     
---------------------------------|---------------------------------| 
---------------------------------|---------------------------------| 
--0------------------------------|---------------------------------| 
---------------------------------|------------------------------6--| 
--3--3-3-3-3-3-3-3-3-3-3-3-3-3-3-|--3-3-3-3-3-3-3-3-3-3-3-3-3-3-4--| 
---------------------------------|---------------------------------| 
 
 
                                                                     
---------------------------------|---------------------------------| 
---------------------------------|---------------------------------| 
--0------------------------------|--------------------------0------| 
---------------------------------|---------------------------------| 
--3--3-3-3-3-3-3-3-3-3-3-3-3-3-3-|--3-3-3-3-3-3-3-3-3-3-3-3-3------| 
---------------------------------|---------------------------------| 
 
 
                                                                     
---------------------------------|---------------------------------| 
---------------------------------|---------------------------------| 
---------------------------------|---------------------------------| 
---------------------------------|---------------------------------| 
--6------------------------------|--------------------------6------| 
--4--4-4-4-4-4-4-4-4-4-4-4-4-4-4-|--4-4-4-4-4-4-4-4-4-4-4-4-4------| 
 
 
                                                                     
---------------------------------|---------------------------------| 
---------------------------------|---------------------------------| 
--0------------------------------|---------------------------------| 
---------------------------------|------------------------------6--| 
--3--3-3-3-3-3-3-3-3-3-3-3-3-3-3-|--3-3-3-3-3-3-3-3-3-3-3-3-3-3-4--| 
---------------------------------|---------------------------------| 
 
 
                                                                     
---------------------------------|---------------------------------| 
---------------------------------|---------------------------------| 
--0------------------------------|--------------------------0------| 
---------------------------------|---------------------------------| 
--3--3-3-3-3-3-3-3-3-3-3-3-3-3-3-|--3-3-3-3-3-3-3-3-3-3-3-3-3------| 
---------------------------------|---------------------------------| 
 
 
                                                                     
---------------------------------|---------------------------------| 
---------------------------------|---------------------------------| 
---------------------------------|---------------------------------| 
---------------------------------|---------------------------------| 
--6------------------------------|--------------------------6------| 
--4--4-4-4-4-4-4-4-4-4-4-4-4-4-4-|--4-4-4-4-4-4-4-4-4-4-4-4-4------| 
 
 
                                                       
---------------------------------|-------------------| 
---------------------------------|-------------------| 
--0------------------------------|--0----------------| 
---------------------------------|-------------------| 
--3--3-3-3-3-3-3-3-3-3-3-3-3-3-3-|--3----------------| 
---------------------------------|-------------------| 
 
 
                                                                       
----------------------------------|----------------------------------| 
----------------------------------|----------------------------------| 
----------1-1-1-1-0-0-0-0---------|--3-3-3-3-3-3-1-1-1-1-1-1-0-0-0-0-| 
--3-3-3-3-----------------3-3-3-3-|----------------------------------| 
----------------------------------|----------------------------------| 
----------------------------------|----------------------------------| 
 
 
                                                                       
----------------------------------|----------------------------------| 
----------------------------------|----------------------------------| 
----------1-1-1-1-0-0-0-0---------|--3-3-3-3-3-3-1-1-1-1-1-1-0-0-0-0-| 
--3-3-3-3-----------------3-3-3-3-|----------------------------------| 
----------------------------------|----------------------------------| 
----------------------------------|----------------------------------| 
 
 
                                                            
------------------------------|---------------------------| 
------------------------------|---------------------------| 
---------1------0-------------|---------------------------| 
-----------------------3------|-----------1---------------| 
--4---------------------------|--4-----------------4------| 
------------------------------|---------------------------| 
 
 
                                                            
------------------------------|---------------------------| 
------------------------------|---------------------------| 
---------1------0-------------|---------------------------| 
-----------------------3------|-----------1---------------| 
--4---------------------------|--4-----------------4------| 
------------------------------|---------------------------| 
 
 
                                                                      
---------------------------------|----------------------------------| 
---------------------------------|----------------------------------| 
--5------------------------------|----------------------------------| 
--3--3-3-3-3-3-3-3-3-3-3-3-3-3-3-|--3-3-3-3-3-3-3-3-3-3-3-3-3-3-3-3-| 
---------------------------------|----------------------------------| 
---------------------------------|----------------------------------| 
 
 
                                                                      
----------------------------------|---------------------------------| 
----------------------------------|--------------------------1------| 
----------------------------------|---------------------------------| 
--3-3-3-3-3-3-3-3-3-3-3-3-3-3-3-3-|--3-3-3-3-3-3-3-3-3-3-3-3-3------| 
----------------------------------|---------------------------------| 
----------------------------------|---------------------------------| 
 
 
                                                            
------------------------------|---------------------------| 
------------------------------|---------------------------| 
---------1------0-------------|---------------------------| 
-----------------------3------|-----------1---------------| 
--4---------------------------|--4-----------------4------| 
------------------------------|---------------------------| 
 
 
                                                            
------------------------------|---------------------------| 
------------------------------|---------------------------| 
---------1------0-------------|---------------------------| 
-----------------------3------|-----------1---------------| 
--4---------------------------|--4-----------------4------| 
------------------------------|---------------------------| 
 
 
                                                                      
---------------------------------|----------------------------------| 
---------------------------------|----------------------------------| 
--5------------------------------|----------------------------------| 
--3--3-3-3-3-3-3-3-3-3-3-3-3-3-3-|--3-3-3-3-3-3-3-3-3-3-3-3-3-3-3-3-| 
---------------------------------|----------------------------------| 
---------------------------------|----------------------------------| 
 
 
                                                                      
----------------------------------|---------------------------------| 
----------------------------------|--------------------------1------| 
----------------------------------|---------------------------------| 
--3-3-3-3-3-3-3-3-3-3-3-3-3-3-3-3-|--3-3-3-3-3-3-3-3-3-3-3-3-3------| 
----------------------------------|---------------------------------| 
----------------------------------|---------------------------------| 
 
 
                                                            
------------------------------|---------------------------| 
------------------------------|---------------------------| 
---------1------0-------------|---------------------------| 
-----------------------3------|-----------1---------------| 
--4---------------------------|--4-----------------4------| 
------------------------------|---------------------------| 
 
 
                                                                                
------------------------------|---------------------------|-------------------| 
------------------------------|------------------------1--|--1----------------| 
---------1------0-------------|--3--------1------3--3-----|-------------------| 
-----------------------3------|---------------------------|-------------------| 
--4---------------------------|---------------------------|-------------------| 
------------------------------|---------------------------|-------------------| 
 
 
                                                             
-------------------|-------------------|-------------------| 
--0----------------|-------------------|-------------------| 
-------------------|-------------------|-------------------| 
-------------------|--3----------------|-------------------| 
-------------------|-------------------|-------------------| 
-------------------|-------------------|--1----------------| 
 
 
                                                          
-----1--1-0-1--3-----3--4--|----3-4-3-1--0--1--3--4--6--| 
--1---------------1--------|----------------------------| 
---------------------------|----------------------------| 
---------------------------|----------------------------| 
---------------------------|----------------------------| 
---------------------------|----------------------------| 
 
 
                                                     
--8--6--4-6-4-3-6--4--3--4--|----3--1--0--1--------| 
----------------------------|----------------------| 
----------------------------|----------------------| 
----------------------------|----------------------| 
----------------------------|----------------------| 
----------------------------|----------------------| 
 
 
                                                                      
---------------------------------|----------------------------------| 
---------------------------------|----------------------------------| 
--0------------------------------|----------------------------------| 
---------------------------------|----------------------------------| 
--3--3-3-3-3-3-3-3-3-3-3-3-3-3-3-|--3-3-3-3-3-3-3-3-3-3-3-3-3-3-3-3-| 
---------------------------------|----------------------------------| 
 
 
                                                                      
---------------------------------|----------------------------------| 
---------------------------------|----------------------------------| 
---------------------------------|----------------------------------| 
--6------------------------------|----------------------------------| 
--4--4-4-4-4-4-4-4-4-4-4-4-4-4-4-|--4-4-4-4-4-4-4-4-4-4-4-4-4-4-4-4-| 
---------------------------------|----------------------------------| 
 
Chorus: 
                                                                                 
-------------------|-------------------|-------------------|-------------------| 
-------------------|--3----------------|-------------------|-------------------| 
--5----------------|--0----------------|-------------------|--3----------------| 
--3----------------|-------------------|--6----------------|--1----------------| 
-------------------|-------------------|--4----------------|-------------------| 
-------------------|-------------------|-------------------|-------------------| 
 
 
                                                                                 
-------------------|-------------------|-------------------|-------------------| 
--1----------------|--3----------------|-------------------|-------------------| 
-------------------|--0----------------|-------------------|--3----------------| 
--3----------------|-------------------|--6----------------|--1----------------| 
-------------------|-------------------|--4----------------|-------------------| 
-------------------|-------------------|-------------------|-------------------| 
 
 
                                                                                 
-------------------|-------------------|-------------------|-------------------| 
--1----------------|--3----------------|-------------------|-------------------| 
-------------------|--0----------------|-------------------|--3----------------| 
--3----------------|-------------------|--6----------------|--1----------------| 
-------------------|-------------------|--4----------------|-------------------| 
-------------------|-------------------|-------------------|-------------------| 
 
 
                                                                                 
-------------------|-------------------|-------------------|-------------------| 
--1----------------|--3----------------|-------------------|-------------------| 
-------------------|--0----------------|-------------------|--3----------------| 
--3----------------|-------------------|--6----------------|--1----------------| 
-------------------|-------------------|--4----------------|-------------------| 
-------------------|-------------------|-------------------|-------------------| 
 
 
                                                           
----------------------------|----------------------------| 
----------------------------|----------------------------| 
-----1--0-----3------1--0-1-|-----1--0-------------------| 
--3--------3----------------|--3--------3--1------3--1-3-| 
----------------------------|----------------------------| 
----------------------------|----------------------------| 
 
 
                                                           
----------------------------|----------------------------| 
----------------------------|----------------------------| 
-----1--0-----3------1--0-1-|-----1--0-------------------| 
--3--------3----------------|--3--------3--1------3--1-3-| 
----------------------------|----------------------------| 
----------------------------|----------------------------| 
 
 
                                                           
----------------------------|----------------------------| 
----------------------------|----------------------------| 
-----1--0-----3------1--0-1-|-----1--0-------------------| 
--3--------3----------------|--3--------3--1------3--1-3-| 
----------------------------|----------------------------| 
----------------------------|----------------------------| 
 
 
                                                           
----------------------------|----------------------------| 
----------------------------|----------------------------| 
-----1--0-----3------1--0-1-|-----1--0-------------------| 
--3--------3----------------|--3--------3--1------3--1-3-| 
----------------------------|----------------------------| 
----------------------------|----------------------------| 
 
 
                                                                
----------------------------------|---------------------------| 
----------------------------------|---------------------------| 
--------------------------0-0-0-0-|--1--------0---------------| 
----------1-1-1-1-3-3-3-3---------|--------------------1------| 
--4-4-4-4-------------------------|---------------------------| 
----------------------------------|---------------------------| 
 
 
                                                                 
----------------------------------|----------------------------| 
----------------------------------|--1--------4--3--4-3--1-----| 
----------0-0-0-0-1-1-1-1-3-3-3-3-|-------------------------3--| 
--3-3-3-3-------------------------|----------------------------| 
----------------------------------|----------------------------| 
----------------------------------|----------------------------| 
 
 
                                                                              
---------1------1--4--3--1--|-------------------|---------------------------| 
--1-------------------------|--4----------------|---------------------------| 
----------------------------|-------------------|--1--------0---------------| 
----------------------------|-------------------|--------------------3------| 
----------------------------|-------------------|---------------------------| 
----------------------------|-------------------|---------------------------| 
 
 
                                                                
---------------------------|----------------------------------| 
---------------------------|----------------------------------| 
---------------------------|--------------------------0-0-0-0-| 
-----------3--------5------|----------1-1-1-1-3-3-3-3---------| 
--3------------------------|--4-4-4-4-------------------------| 
---------------------------|----------------------------------| 
 
 
                                                                
---------------------------|----------------------------------| 
---------------------------|----------------------------------| 
--1--------0---------------|----------0-0-0-0-1-1-1-1-3-3-3-3-| 
--------------------1------|--3-3-3-3-------------------------| 
---------------------------|----------------------------------| 
---------------------------|----------------------------------| 
 
 
                                                                               
----------------------------|---------1------1--4--3--1--|-------------------| 
--1--------4--3--4-3--1-----|--1-------------------------|--4----------------| 
-------------------------3--|----------------------------|-------------------| 
----------------------------|----------------------------|-------------------| 
----------------------------|----------------------------|-------------------| 
----------------------------|----------------------------|-------------------| 
 
 
                                                                             
---------------------------|---------------------------|-------------------| 
---------------------------|---------------------------|--1----------------| 
--1--------0---------------|--0--------1--------3------|-------------------| 
--------------------3------|---------------------------|--3----------------| 
---------------------------|---------------------------|-------------------| 
---------------------------|---------------------------|-------------------| 
 
 
                                                                                 
-------------------|-------------------|-------------------|-------------------| 
--3----------------|-------------------|-------------------|--1----------------| 
--0----------------|-------------------|--3----------------|-------------------| 
-------------------|--6----------------|--1----------------|--3----------------| 
-------------------|--4----------------|-------------------|-------------------| 
-------------------|-------------------|-------------------|-------------------| 
 
 
                                                                                 
-------------------|-------------------|-------------------|-------------------| 
--3----------------|-------------------|-------------------|--1----------------| 
--0----------------|-------------------|--3----------------|-------------------| 
-------------------|--6----------------|--1----------------|--3----------------| 
-------------------|--4----------------|-------------------|-------------------| 
-------------------|-------------------|-------------------|-------------------| 
 
 
                                                                                 
-------------------|-------------------|-------------------|-------------------| 
--3----------------|-------------------|-------------------|--1----------------| 
--0----------------|-------------------|--3----------------|-------------------| 
-------------------|--6----------------|--1----------------|--3----------------| 
-------------------|--4----------------|-------------------|-------------------| 
-------------------|-------------------|-------------------|-------------------| 
 
 
                                                             
-------------------|-------------------|-------------------| 
--3----------------|-------------------|-------------------| 
--0----------------|-------------------|--3----------------| 
-------------------|--6----------------|--1----------------| 
-------------------|--4----------------|-------------------| 
-------------------|-------------------|-------------------| 
 
 
                                                                      
--1-----1--3----------|--3-----3--4----------|--4--1--4--8----------| 
-----1----------------|-----1----------------|----------------------| 
----------------------|----------------------|----------------------| 
----------------------|----------------------|----------------------| 
----------------------|----------------------|----------------------| 
----------------------|----------------------|----------------------| 
 
 
                                                                      
--6--4--3--0----------|--1-----1--3----------|--3-----3--4----------| 
----------------------|-----1----------------|-----1----------------| 
----------------------|----------------------|----------------------| 
----------------------|----------------------|----------------------| 
----------------------|----------------------|----------------------| 
----------------------|----------------------|----------------------| 
 
 
                                               
--4--1--4--8----------|--6--4--3--0----------| 
----------------------|----------------------| 
----------------------|----------------------| 
----------------------|----------------------| 
----------------------|----------------------| 
----------------------|----------------------| 
 
 
                                                                
--20-------------------20----------------------20-------------| 
-----21----21-23-21-------21----21-23-21----21----21----21-23-| 
--------22----------22-------22----------22----------22-------| 
--------------------------------------------------------------| 
--------------------------------------------------------------| 
--------------------------------------------------------------| 
 
 
                                                                            
-----------20-18-16----16--------------|--13-11-11-9-8--9-8-6--8-6-4------| 
--21----21----------18-----------14-14-|--------------------------------0-| 
-----22--------------------------------|------------------------------6---| 
---------------------------------------|----------------------------------| 
---------------------------------------|----------------------------------| 
---------------------------------------|----------------------------------| 
 
 
                                                                                 
-----------------------|--------1--3--4--6--8--9--|--11--13------11--------16--| 
-----------------------|--2--4--------------------|----------------------------| 
--3--3-1----1----------|--------------------------|----------------------------| 
---------4-------------|--------------------------|----------------------------| 
-----------------------|--------------------------|----------------------------| 
-----------------------|--------------------------|----------------------------| 
 
 
                                                                   
----15-16-15-13--11--13--11--9--11--|--9--------8-9-8--------4-3-| 
------------------------------------|----------------------------| 
------------------------------------|----------------------------| 
------------------------------------|----------------------------| 
------------------------------------|----------------------------| 
------------------------------------|----------------------------| 
 
 
                                                                        
--1----------4--3--1--|-------------------|--4--------3--------1------| 
----------------------|--4----------------|---------------------------| 
----------------------|-------------------|---------------------------| 
----------------------|-------------------|---------------------------| 
----------------------|-------------------|---------------------------| 
----------------------|-------------------|---------------------------| 
 
 
                                                                         
--3-3-4-4-6-6-8-8-9-9-11-11-13------|-----13--11-9-8-6-8-6-4--8------6-| 
------------------------------------|--14------------------------------| 
------------------------------------|----------------------------------| 
------------------------------------|----------------------------------| 
------------------------------------|----------------------------------| 
------------------------------------|----------------------------------| 
 
 
                                                        
----4---------------------|--6-----------6--8--9--11--| 
--6---6-4-----------------|-----6--8--9---------------| 
----------5--5-3-1--------|---------------------------| 
--------------------------|---------------------------| 
--------------------------|---------------------------| 
--------------------------|---------------------------| 
 
 
                                                         
--18-20-------18-16-----------|----16---16---16--------| 
--------------------18--------|------------------------| 
------------------------------|------------------------| 
------------------------------|------------------------| 
------------------------------|------------------------| 
------------------------------|------------------------| 
 
 
                                                                   
--13--11--9-11-9-8-8------8-8-8-8-|--8-9-8-6-8-6-4-6-8--------4--| 
----------------------------------|------------------------------| 
----------------------------------|------------------------------| 
----------------------------------|------------------------------| 
----------------------------------|------------------------------| 
----------------------------------|------------------------------| 
 
 
                                                                           
--6-4-6-4-----------------|--20------------------------------------------| 
----------6--6-4----------|------21-----21-------------------------------| 
-----------------5--------|---------22------22-----22--------------------| 
--------------------------|---------------------22-----22-----22---------| 
--------------------------|--------------------------------23-----23--20-| 
--------------------------|----------------------------------------------| 
 
 
                                    
----------------------16--15--13--| 
------------------18--------------| 
--------------17------------------| 
----------18----------------------| 
------20--------------------------| 
--20------------------------------| 
 
 
                                                
--20------------------------------------------| 
------21-----21-------------------------------| 
----------22-----22-----22--------------------| 
---------------------22-----22-----22---------| 
--------------------------------23-----23--20-| 
----------------------------------------------| 
 
 
                                    
------------------13--16--15--13--| 
--------------13------------------| 
----------13----------------------| 
------15--------------------------| 
----------------------------------| 
--16------------------------------| 
 
 
                                                
--20------------------------------------------| 
------21-----21-------------------------------| 
----------22-----22-----22--------------------| 
---------------------22-----22-----22---------| 
--------------------------------23-----23--20-| 
----------------------------------------------| 
 
 
                                    
----------------------16--15------| 
------------------18----------17--| 
--------------17------------------| 
----------18----------------------| 
------20--------------------------| 
--20------------------------------| 
 
 
                                                                             
--------------------------15-15-15-15-13-13-12-12-|------------------------| 
--17-17-17-17-18-18-18-18-------------------------|--13--------------------| 
--------------------------------------------------|----------------13------| 
--------------------------------------------------|------------------------| 
--------------------------------------------------|------------------------| 
--------------------------------------------------|------------------------| 
 
 
                                                          
------------------------6---------|---------------------| 
--13--11------11------9---9-8--9--|----8-----6----------| 
----------13----------------------|-------8-------------| 
----------------------------------|---------------------| 
----------------------------------|---------------------| 
----------------------------------|---------------------| 
 
 
                                                   
-----------3------4--6--8--|----6--4--3----------| 
-----4--6------------------|---------------------| 
--6------------------------|---------------------| 
---------------------------|---------------------| 
---------------------------|---------------------| 
---------------------------|---------------------| 
 
 
                                                      
--8--6--4--6------4-6-4-3--4--|----3-----1----------| 
------------------------------|-------4-------------| 
------------------------------|---------------------| 
------------------------------|---------------------| 
------------------------------|---------------------| 
------------------------------|---------------------| 
 
 
                                                   
--------1--3------4--6--8--|----6--4--3----------| 
--2--4---------------------|---------------------| 
---------------------------|---------------------| 
---------------------------|---------------------| 
---------------------------|---------------------| 
---------------------------|---------------------| 
 
Verse 
                                                                     
---------------------------------|---------------------------------| 
---------------------------------|---------------------------------| 
--0------------------------------|---------------------------------| 
---------------------------------|------------------------------6--| 
--3--3-3-3-3-3-3-3-3-3-3-3-3-3-3-|--3-3-3-3-3-3-3-3-3-3-3-3-3-3-4--| 
---------------------------------|---------------------------------| 
 
 
                                                                     
---------------------------------|---------------------------------| 
---------------------------------|---------------------------------| 
--0------------------------------|--------------------------0------| 
---------------------------------|---------------------------------| 
--3--3-3-3-3-3-3-3-3-3-3-3-3-3-3-|--3-3-3-3-3-3-3-3-3-3-3-3-3------| 
---------------------------------|---------------------------------| 
 
 
                                                                     
---------------------------------|---------------------------------| 
---------------------------------|---------------------------------| 
---------------------------------|---------------------------------| 
---------------------------------|---------------------------------| 
--6------------------------------|--------------------------6------| 
--4--4-4-4-4-4-4-4-4-4-4-4-4-4-4-|--4-4-4-4-4-4-4-4-4-4-4-4-4------| 
 
 
                                                                     
---------------------------------|---------------------------------| 
---------------------------------|---------------------------------| 
--0------------------------------|---------------------------------| 
---------------------------------|------------------------------6--| 
--3--3-3-3-3-3-3-3-3-3-3-3-3-3-3-|--3-3-3-3-3-3-3-3-3-3-3-3-3-3-4--| 
---------------------------------|---------------------------------| 
 
 
                                                                     
---------------------------------|---------------------------------| 
---------------------------------|---------------------------------| 
--0------------------------------|--------------------------0------| 
---------------------------------|---------------------------------| 
--3--3-3-3-3-3-3-3-3-3-3-3-3-3-3-|--3-3-3-3-3-3-3-3-3-3-3-3-3------| 
---------------------------------|---------------------------------| 
 
 
                                                                     
---------------------------------|---------------------------------| 
---------------------------------|---------------------------------| 
---------------------------------|---------------------------------| 
---------------------------------|---------------------------------| 
--6------------------------------|--------------------------6------| 
--4--4-4-4-4-4-4-4-4-4-4-4-4-4-4-|--4-4-4-4-4-4-4-4-4-4-4-4-4------| 
 
 
                                                       
---------------------------------|-------------------| 
---------------------------------|-------------------| 
--0------------------------------|--0----------------| 
---------------------------------|-------------------| 
--3--3-3-3-3-3-3-3-3-3-3-3-3-3-3-|--3----------------| 
---------------------------------|-------------------| 
 
 
                                                                       
----------------------------------|----------------------------------| 
----------------------------------|----------------------------------| 
----------1-1-1-1-0-0-0-0---------|--3-3-3-3-3-3-1-1-1-1-1-1-0-0-0-0-| 
--3-3-3-3-----------------3-3-3-3-|----------------------------------| 
----------------------------------|----------------------------------| 
----------------------------------|----------------------------------| 
 
 
                                                                       
----------------------------------|----------------------------------| 
----------------------------------|----------------------------------| 
----------1-1-1-1-0-0-0-0---------|--3-3-3-3-3-3-1-1-1-1-1-1-0-0-0-0-| 
--3-3-3-3-----------------3-3-3-3-|----------------------------------| 
----------------------------------|----------------------------------| 
----------------------------------|----------------------------------| 
 
 
                                                            
------------------------------|---------------------------| 
------------------------------|---------------------------| 
---------1------0-------------|---------------------------| 
-----------------------3------|-----------1---------------| 
--4---------------------------|--4-----------------4------| 
------------------------------|---------------------------| 
 
 
                                                            
------------------------------|---------------------------| 
------------------------------|---------------------------| 
---------1------0-------------|---------------------------| 
-----------------------3------|-----------1---------------| 
--4---------------------------|--4-----------------4------| 
------------------------------|---------------------------| 
 
 
                                                                      
---------------------------------|----------------------------------| 
---------------------------------|----------------------------------| 
--5------------------------------|----------------------------------| 
--3--3-3-3-3-3-3-3-3-3-3-3-3-3-3-|--3-3-3-3-3-3-3-3-3-3-3-3-3-3-3-3-| 
---------------------------------|----------------------------------| 
---------------------------------|----------------------------------| 
 
 
                                                                      
----------------------------------|---------------------------------| 
----------------------------------|--------------------------1------| 
----------------------------------|---------------------------------| 
--3-3-3-3-3-3-3-3-3-3-3-3-3-3-3-3-|--3-3-3-3-3-3-3-3-3-3-3-3-3------| 
----------------------------------|---------------------------------| 
----------------------------------|---------------------------------| 
 
 
                                                            
------------------------------|---------------------------| 
------------------------------|---------------------------| 
---------1------0-------------|---------------------------| 
-----------------------3------|-----------1---------------| 
--4---------------------------|--4-----------------4------| 
------------------------------|---------------------------| 
 
 
                                                            
------------------------------|---------------------------| 
------------------------------|---------------------------| 
---------1------0-------------|---------------------------| 
-----------------------3------|-----------1---------------| 
--4---------------------------|--4-----------------4------| 
------------------------------|---------------------------| 
 
 
                                                                      
---------------------------------|----------------------------------| 
---------------------------------|----------------------------------| 
--5------------------------------|----------------------------------| 
--3--3-3-3-3-3-3-3-3-3-3-3-3-3-3-|--3-3-3-3-3-3-3-3-3-3-3-3-3-3-3-3-| 
---------------------------------|----------------------------------| 
---------------------------------|----------------------------------| 
 
 
                                                                      
----------------------------------|---------------------------------| 
----------------------------------|--------------------------1------| 
----------------------------------|---------------------------------| 
--3-3-3-3-3-3-3-3-3-3-3-3-3-3-3-3-|--3-3-3-3-3-3-3-3-3-3-3-3-3------| 
----------------------------------|---------------------------------| 
----------------------------------|---------------------------------| 
 
 
                                                            
------------------------------|---------------------------| 
------------------------------|---------------------------| 
---------1------0-------------|---------------------------| 
-----------------------3------|-----------1---------------| 
--4---------------------------|--4-----------------4------| 
------------------------------|---------------------------| 
 
 
                                                                                
------------------------------|---------------------------|-------------------| 
------------------------------|------------------------1--|--1----------------| 
---------1------0-------------|--3--------1------3--3-----|-------------------| 
-----------------------3------|---------------------------|-------------------| 
--4---------------------------|---------------------------|-------------------| 
------------------------------|---------------------------|-------------------| 
 
 
                                                             
-------------------|-------------------|-------------------| 
--0----------------|-------------------|-------------------| 
-------------------|-------------------|-------------------| 
-------------------|--3----------------|-------------------| 
-------------------|-------------------|-------------------| 
-------------------|-------------------|--1----------------| 
 
 
                                                          
-----1--1-0-1--3-----3--4--|----3-4-3-1--0--1--3--4--6--| 
--1---------------1--------|----------------------------| 
---------------------------|----------------------------| 
---------------------------|----------------------------| 
---------------------------|----------------------------| 
---------------------------|----------------------------| 
 
 
                                                     
--8--6--4-6-4-3-6--4--3--4--|----3--1--0--1--------| 
----------------------------|----------------------| 
----------------------------|----------------------| 
----------------------------|----------------------| 
----------------------------|----------------------| 
----------------------------|----------------------| 
 
 
                                                                      
---------------------------------|----------------------------------| 
---------------------------------|----------------------------------| 
--0------------------------------|----------------------------------| 
---------------------------------|----------------------------------| 
--3--3-3-3-3-3-3-3-3-3-3-3-3-3-3-|--3-3-3-3-3-3-3-3-3-3-3-3-3-3-3-3-| 
---------------------------------|----------------------------------| 
 
 
                                                                      
---------------------------------|----------------------------------| 
---------------------------------|----------------------------------| 
---------------------------------|----------------------------------| 
--6------------------------------|----------------------------------| 
--4--4-4-4-4-4-4-4-4-4-4-4-4-4-4-|--4-4-4-4-4-4-4-4-4-4-4-4-4-4-4-4-| 
---------------------------------|----------------------------------| 
 
Chorus: 
                                                                                 
-------------------|-------------------|-------------------|-------------------| 
-------------------|--3----------------|-------------------|-------------------| 
--5----------------|--0----------------|-------------------|--3----------------| 
--3----------------|-------------------|--6----------------|--1----------------| 
-------------------|-------------------|--4----------------|-------------------| 
-------------------|-------------------|-------------------|-------------------| 
 
 
                                                                                 
-------------------|-------------------|-------------------|-------------------| 
--1----------------|--3----------------|-------------------|-------------------| 
-------------------|--0----------------|-------------------|--3----------------| 
--3----------------|-------------------|--6----------------|--1----------------| 
-------------------|-------------------|--4----------------|-------------------| 
-------------------|-------------------|-------------------|-------------------| 
 
 
                                                                                 
-------------------|-------------------|-------------------|-------------------| 
--1----------------|--3----------------|-------------------|-------------------| 
-------------------|--0----------------|-------------------|--3----------------| 
--3----------------|-------------------|--6----------------|--1----------------| 
-------------------|-------------------|--4----------------|-------------------| 
-------------------|-------------------|-------------------|-------------------| 
 
 
                                                                                 
-------------------|-------------------|-------------------|-------------------| 
--1----------------|--3----------------|-------------------|-------------------| 
-------------------|--0----------------|-------------------|--3----------------| 
--3----------------|-------------------|--6----------------|--1----------------| 
-------------------|-------------------|--4----------------|-------------------| 
-------------------|-------------------|-------------------|-------------------| 
 
 
                                                                                 
-------------------|-------------------|-------------------|-------------------| 
--1----------------|--3----------------|-------------------|-------------------| 
-------------------|--0----------------|-------------------|--3----------------| 
--3----------------|-------------------|--6----------------|--1----------------| 
-------------------|-------------------|--4----------------|-------------------| 
-------------------|-------------------|-------------------|-------------------| 
 
 
                                                                                 
-------------------|-------------------|-------------------|-------------------| 
--1----------------|--3----------------|-------------------|-------------------| 
-------------------|--0----------------|-------------------|--3----------------| 
--3----------------|-------------------|--6----------------|--1----------------| 
-------------------|-------------------|--4----------------|-------------------| 
-------------------|-------------------|-------------------|-------------------| 
 
 
                                                           
----------------------------|----------------------------| 
----------------------------|----------------------------| 
-----1--0-----3------1--0-1-|-----1--0-------------------| 
--3--------3----------------|--3--------3--1------3--1-3-| 
----------------------------|----------------------------| 
----------------------------|----------------------------| 
 
 
                                                           
----------------------------|----------------------------| 
----------------------------|----------------------------| 
-----1--0-----3------1--0-1-|-----1--0-------------------| 
--3--------3----------------|--3--------3--1------3--1-3-| 
----------------------------|----------------------------| 
----------------------------|----------------------------| 
 
 
                                                           
----------------------------|----------------------------| 
----------------------------|----------------------------| 
-----1--0-----3------1--0-1-|-----1--0-------------------| 
--3--------3----------------|--3--------3--1------3--1-3-| 
----------------------------|----------------------------| 
----------------------------|----------------------------| 
 
 
                                                           
----------------------------|----------------------------| 
----------------------------|----------------------------| 
-----1--0-----3------1--0-1-|-----1--0-------------------| 
--3--------3----------------|--3--------3--1------3--1-3-| 
----------------------------|----------------------------| 
----------------------------|----------------------------| 
 
 
                        
---------------------|| 
---------------------|| 
---------------------|| 
--3------------------|| 
---------------------|| 
---------------------|| 
 
 
 
 

		  

See also:

tabs Scorpions - Humanity tabs Helloween - I Want Out tabs Scorpions - Rock You Like a Hurricane (ver. 3) tabs Helloween - A Little Time tabs Scorpions - Send Me An Angel tabs Scorpions - When You Cme Into My Life
e-chords

Other versions:

tabs Blind Guardian - Banish from Sanctuary
auto scroll beats size up size down change color hide chords drawings
tab show chords e-chords YouTube Clip e-chords hide all tabs e-chords go to top tab

share