Blind Boy Fuller

Jivin' Woman Blues

Blind Boy Fuller

tabs Expert expert

by  ROWANE

save to print version add songbook text version e-mail correct tuner
chordsukulelecavacokeyboardtabbassdrumsharmonicaflute Guitar Pro
close

there isn't a video lesson for this song

chords

Jivin' Woman Blues

Year: 1978 - Album: Truckin' My Blues Away

	  		Jivin' Woman Blues                                 
Blind Boy Fuller 
 
 
 
 
                                                                              
E||-------0-----0----------|-----------------------|-------0-----0----------| 
B||----------4-----1-------|--3-------4------------|----------4-----1-------| 
G||-------------------2----|-----------------------|-------------------2----| 
D||------------------------|-------3----------4----|------------------------| 
A||-------------------0----|-----------------------|-------3-----------0----| 
E||--3---------------------|--3----------4---------|--3---------------------| 
 
 
                                                                             
------------------------|-------0-----0----------|--------0----------------| 
--3--3-----4------------|----------4-----1-------|-----------1-------------| 
------------------------|-------------------2----|--0--0--------2--0-------| 
--------3----------4----|------------------------|-------------------------| 
------------------------|-------3-----------0----|--------3----------------| 
--3-----------4---------|--3---------------------|--------------------3----| 
 
 
                                                                             
--------------------------|-----------------------|-------0-----0----------| 
-----1--------1--------1--|-------------1---------|----------4-----1-------| 
--------------------------|--------0--------------|-------------------2----| 
--------------1-----------|--1---------------2----|----------4-------------| 
--0-----3-----------3-----|-------------3---------|-------3-----------0----| 
-----------4-----4--------|-----4--3--------------|--3---------------------| 
 
 
                                                                            
------------------------|-------0-----0----------|------------------------| 
--3--3-----4------------|----------4-----1-------|--3--3-----4------------| 
------------------------|-------------------2----|------------------------| 
--------3----------4----|----------4-------------|--------3----------4----| 
------------------------|-------3-----------0----|------------------------| 
--3-----------4---------|--3---------------------|--3-----------4---------| 
 
 
                                                                                 
-------0-----0----------|----------0----------------|--------------------------| 
----------4-----1-------|-------4-----1-------------|-----1--------1--------1--| 
-------------------2----|--0-------------2--0-------|--------------------------| 
------------------------|---------------------------|--------------1-----------| 
-------3-----------0----|---------------------------|--0-----3-----------3-----| 
--3---------------------|----------------------3----|-----------4-----4--------| 
 
 
                                                                         
-----------------------|--0-------------------|--0--------0------------| 
--------0----1---------|--0-------------------|-----3--------3---------| 
-----------------------|--1-------------------|------------------------| 
--1---------------2----|--2---------2---------|--2-----------2---------| 
-------------3---------|--2-------------------|------------------------| 
-----4--3--------------|--0----0---------0----|--------0----------4----| 
 
 
                                                                           
-------3--------3-------|--5--4-----3------------|------------0----------| 
----------2--------2----|------------------------|-------3-------3-------| 
------------------------|------------------------|-----------------------| 
-------2-----------2----|--------2---------------|-------4----------4----| 
--0----------0----------|--0-----------0----4----|--5--------------------| 
------------------------|------------------------|------------5----------| 
 
 
                                                                             
--0---------------------|--5--3--5--3--5--3--5--3--|--5--3----3------------| 
-----3-----3------------|--------------------------|-----------------------| 
------------------------|--------------------------|-------------0---------| 
--------4----------4----|--------------------------|-----------------------| 
--5---------------------|--------------------------|-----------------------| 
--------------5---------|--------------------------|------------------3----| 
 
 
                                                                            
-------0-----0----------|------------------------|-------0-----0----------| 
--1-------4-----1-------|--3--------4------------|----------4-----1-------| 
-------------------2----|-----0------------------|-------------------2----| 
------------------------|--------3----------4----|------------------------| 
--3----------------0----|------------------------|--3----------------0----| 
------------------------|--3-----------4---------|------------------------| 
 
 
                                                                              
-------------------------|-------0-----0----------|----------0--------------| 
--3--3-----4-------------|----------4-----1-------|-------4-----1-----------| 
-------------------------|-------------------2----|--0-------------2--0-----| 
--------3-------------4--|------------------------|-------------------------| 
-------------------------|--3----------------0----|-------------------------| 
--3-----------4----4-----|------------------------|----------------------3--| 
 
 
                                                     
--------------------------|-----------------------|| 
-----1--------1--------1--|--------0----1---------|| 
--------------------------|-----------------------|| 
--------------1-----------|--1---------------2----|| 
--0-----3-----------3-----|-------------3---------|| 
-----------4-----4--------|-----4--3--------------|| 

		  

See also:

tabs Corey Smith - Twenty-One tabs B.B. King - How blues can you get tabs Muddy Waters - Champagne & Reefer tabs Allman Brothers Band - Its Not My Cross To Bear tabs Robert Johnson - Walkin' Blues tabs Noah Lewis - New Minglewood Blues
e-chords

Other versions:

tabs Blind Boy Fuller - Jivin' Woman Blues
auto scroll beats size up size down change color hide chords drawings
tab show chords e-chords YouTube Clip e-chords hide all tabs e-chords go to top tab

share