BlessTheFall

Hollow Bodies

BlessTheFall

tabs Advanced advanced

by  GUSTSILVA

save to print version add songbook text version e-mail correct tuner
chordsukulelecavacokeyboardtabbassdrumsharmonicaflute Guitar Pro
close

there isn't a video lesson for this song

chords

Hollow Bodies

	  		

Tuning: Drop C 

D|--------------------------------------------------------------------------| 
A|--------------------------------------------------------------------------| 
F|--------------------------------------------------------------------------| 
C|------------------------------------------------------5h7p5---------------| 
G|--------------6-----5--------5------------------5-5h6-------6p5-----------| 
C|-0-0-0---0--0----0-----0--0-----0--0--0--0--0-----------------------------| 
              .    .     .  .        .     . 
D|--------------------------------------------------------------------------| 
A|--------------------------------------------------------------------------| 
F|--------------------------------------------------------------------------| 
C|--------------------------------------------------------------------------| 
G|-------6-----5--------5-----1-1-1-1-1-1-1-1-------------------------------| 
C|-0--0-----0-----0--0-------------------------1-1-1-1-4-4-4-4--------------| 
      .     .     .  .        . . . . . . . .  . . . . . . . . 
D|--------------------------------------------------------------------------| 
A|--------------------------------------------------------------------------| 
F|--------------------------------------------------------------------------| 
C|-------------------------------------------------5h7p5--------------------| 
G|-------6-----5--------5------------------5-5h6-----------6p5--------------| 
C|-0--0-----0-----0--0-----0--0--0--0--0------------------------------------| 
      .     .     .  .        .     . 
D|--------------------------------------------------------------------------| 
A|--------------------------------------------------------------------------| 
F|--------------------------------------------------------------------------| 
C|--------------------------------------------------------------------------| 
G|-------6-----5--------5-----1-1-1-1-1-1-1-1-------------------------------| 
C|-0--0-----0-----0--0-------------------------1-1-1-1-4-4-4-4--------------| 
      .     .     .  .        . . . . . . . .  . . . . . . . . 
D|--------------------------------------------------------------------------| 
A|--------------------------------------------------------------------------| 
F|--------------------------------------------------------------------------| 
C|-----------------------------------------------5h7p5----------------------| 
G|-------6-----5--------5------------------5-5h6-------6p5------------------| 
C|-0--0-----0-----0--0-----0--0--0--0--0------------------------------------| 
      .     .     .  .        .     .      
D|--------------------------------------------------------------------------| 
A|--------------------------------------------------------------------------| 
F|--------------------------------------------------------------------------| 
C|--------------------------------------------------------------------------| 
G|-------6-----5--------5-----1-1-1-1-1-1-1-1-------------------------------| 
C|-0--0-----0-----0--0-------------------------1-1-1-1-4-4-4-4--------------| 
      .     .     .  .        . . . . . . . .  . . . . . . . . 
D|--------------------------------------------------------------------------| 
A|--------------------------------------------------------------------------| 
F|--------------------------------------------------------------------------| 
C|-------------------------------------------------5h7p5--------------------| 
G|-------6-----5--------5------------------5-5h6-----------6p5--------------| 
C|-0--0-----0-----0--0-----0--0--0--0--0------------------------------------| 
      .     .     .  .        .     . 
D|--------------------------------------------------------------------------| 
A|--------------------------------------------------------------------------| 
F|--------------------------------------------------------------------------| 
C|--------------------------------------------------------------5h7p5-------| 
G|-------6-----5--------5-----1-1-1-1-1-1-1-1--5h6p5h6p5h6p5h6---------6p5--| 
C|-0--0-----0-----0--0------------------------------------------------------| 
      .     .     .  .        . . . . . . . . 

D|--------------------------------------------------------------------------| 
A|--------------------------------------------------------------------------| 
F|--------------------------------------------------------------------------| 
C|-----------------------------------------------5h7p5----------------------| 
G|-------6----5-----5*---------------------5-5h6-------6p5------------------| 
C|-0--0----0-----0------0---0--0--0--0--------------------------------------| 
      .    .     .          .     .  
D|--------------------------------------------------------------------------| 
A|--------------------------------------------------------------------------| 
F|--------------------------------------------------------------------------| 
C|--------------------------------------------------------------------------| 
G|-------6-----5--------5-----1-1-1-1-1-1-1-1-------------------------------| 
C|-0--0-----0-----0--0-------------------------1-1-1-1-4-4-4-4--------------| 
      .     .     .  .        . . . . . . . .  . . . . . . . . 
D|--------------------------------------------------------------------------| 
A|--------------------------------------------------------------------------| 
F|--------------------------------------------------------------------------| 
C|-------------------------------------------------5h7p5--------------------| 
G|-------6-----5--------5------------------5-5h6-----------6p5--------------| 
C|-0--0-----0-----0--0-----0--0--0--0--0------------------------------------| 
      .     .     .  .        .     . 
D|--------------------------------------------------------------------------| 
A|--------------------------------------------------------------------------| 
F|--------------------------------------------------------------------------| 
C|--------------------------------------------------------------------------| 
G|-------6-----5--------5-----1-1-1-1-1-1-1-1--5h6p5h6p5h6p5h6p5------------| 
C|-0--0-----0-----0--0------------------------------------------------------| 
      .     .     .  .        . . . . . . . . 
D|--------------------------------------------------------------------------| 
A|--------------------------------------------------------------------------| 
F|--------------------------------------------------------------------------| 
C|--------------------------------------------------------------------------|(2x) 
G|-0-0-0---0-0-0-0-0-0-0-0--8-8-8--5-5-5--10-10-10-10-10-10-10-10-----------| 
C|-0-0-0---0-0-0-0-0-0-0-0--8-8-8--5-5-5--10-10-10-10-10-10-10-10-----------| 
   . . .   . . . . . . . .  . . .  . . .  .  .  .  .  .  .  .  .  
D|--------------------------------------------------------------------------| 
A|--------------------------------------------------------------------------| 
F|--------------------------------------------------------------------------| 
C|-8-0-0-0-0-7-0-0-0-0-10-0-0-8-0-0-0-0-0-7-0-0-5-0-0-----------------------|(4x) 
G|--------------------------------------------------------------------------| 
C|--------------------------------------------------------------------------| 
     . . . .   . . . .    . .   . . . . .   . .   . . 
D|--------------------------------------------------------------------------| 
A|--------------------------------------------------------------------------| 
F|-------------------------9h10p9-------------------------------------------| 
C|-0~---7h8p7p0--8h10p8p0----------10h12p10p0--8h10p8p0--7h8p7p0------------| 
G|-0~-----------------------------------------------------------------------| 
C|-0~-----------------------------------------------------------------------| 

D|--------------------------------------------------------------------------| 
A|--------------------------------------------------------------------------| 
F|--------------------9h10p9------------------------------------------------| 
C|-7h8p7p0--8h10p8p0----------10h12p10p0--8h10p8p0--7h8---------------------| 
G|--------------------------------------------------------------------------| 
C|--------------------------------------------------------------------------| 

D|--------------------------------------------------------------------------| 
A|--------------------------------------------------------------------------| 
F|--------------------------------------------------------------------------| 
C|------------------------------------------------------------1-------------| 
G|-0-0-0-0-0--0-0-0-0-0-0-0-0-----0-0-0-0-0--0-0-0-0-0-0-0-0--1--0-0-0-0-0--| 
C|-0-0-0-0-0--0-0-0-0-0-0-0-0--3*-0-0-0-0-0--0-0-0-0-0-0-0-0--1--0-0-0-0-0--| 
   . . . . .  . . . . . . . .     . . . . .  . . . . . . . .     . . . . . 
D|--------------------------------------------------------------------------| 
A|--------------------------------------------------------------------------| 
F|--------------------------------------------------------------------------| 
C|------------------1-------------------------1/4---------------------------| 
G|-0-0-0-0-0-0-0-0--1-------------------------1/4---------------------------| 
C|-0-0-0-0-0-0-0-0--1--0-0-0-0-0--0--0-0-0-0--1/4---------------------------| 
   . . . . . . . .     . . . . .     . . . .  
D|--------------------------------------------------------------------------| 
A|--------------------------------------------------------------------------| 
F|--------------------------------------------------------------------------| 
C|--------------------------------------------------------------------------| 
G|-0-0-0-0-0--0-0-0-0-0-0-0-0-----0-0-0-0-0--0-0-0-0-0-0-0-0--3*-0-0-0-0-0--| 
C|-0-0-0-0-0--0-0-0-0-0-0-0-0--3*-0-0-0-0-0--0-0-0-0-0-0-0-0-----0-0-0-0-0--| 
   . . . . .  . . . . . . . .     . . . . .  . . . . . . . .     . . . . . 
D|--------------------------------------------------------------------------| 
A|--------------------------------------------------------------------------| 
F|--------------------------------------------------------------------------| 
C|------------------1-------------------------3/5---------------------------| 
G|-0-0-0-0-0-0-0-0--1-------------------------1/3---------------------------| 
C|-0-0-0-0-0-0-0-0--1--0-0-0-0-0--0--0-0-0-0--------------------------------| 
    . . . . . . . .     . . . . .     . . . . 
D|--------------------------------------------------------------------------| 
A|--------------------------------------------------------------------------| 
F|--------------------------------------------------------------------------| 
C|--------------------------------------------------------------------------|(2x) 
G|-0-0-0--0-0-0-0-0-0-0-0--8-8-8--5-5-5--10-10-10-10-10-10-10-10------------| 
C|-0-0-0--0-0-0-0-0-0-0-0--8-8-8--5-5-5--10-10-10-10-10-10-10-10------------| 
   . . .  . . . . . . . .  . . .  . . .  .  .  .  .  .  .  .  .  
D|--------------------------------------------------------------------------| 
A|--------------------------------------------------------------------------| 
F|--------------------------------------------------------------------------| 
C|-8-0-0-0-0-7-0-0-0-0-10-0-0-8-0-0-0-0-0-7-0-0-5-0-0-----------------------|(4x) 
G|--------------------------------------------------------------------------| 
C|--------------------------------------------------------------------------| 
     . . . .   . . . .    . .   . . . . .   . .   . . 

D|--3h5--10t3t10--3h5--10t3t10--3h5--10t3-----------------------------------| 
A|--------------------------------------------------------------------------| 
F|--------------------------------------------------------------------------| 
C|--------------------------------------------------------------------------| 
G|--------------------------------------------------------------------------| 
C|--------------------------------------------------------------------------| 

D|--13t3h5p3--13t3h5p3--13t3h5p3--13t3h5p3----------------------------------| 
A|--------------------------------------------------------------------------| 
F|--------------------------------------------------------------------------| 
C|--------------------------------------------------------------------------| 
G|--------------------------------------------------------------------------| 
C|--------------------------------------------------------------------------| 

D|--12t3h5p3--12t3h5p3--12t3h5p3--12t3h5p3----------------------------------| 
A|--------------------------------------------------------------------------| 
F|--------------------------------------------------------------------------| 
C|--------------------------------------------------------------------------| 
G|--------------------------------------------------------------------------| 
C|--------------------------------------------------------------------------| 

D|--3h5--10t3t10--3h5--10t3t10--3h5--10t3-----------------------------------| 
A|--------------------------------------------------------------------------| 
F|--------------------------------------------------------------------------| 
C|--------------------------------------------------------------------------| 
G|--------------------------------------------------------------------------| 
C|--------------------------------------------------------------------------| 

D|--13t3h5p3--13t3h5p3--13t3h5p3--13t3h5p3----------------------------------| 
A|--------------------------------------------------------------------------| 
F|--------------------------------------------------------------------------| 
C|--------------------------------------------------------------------------| 
G|--------------------------------------------------------------------------| 
C|--------------------------------------------------------------------------| 

D|--15t3h5p3--15t3h5p3--12t3h5p3--12t3h5p3----------------------------------| 
A|--------------------------------------------------------------------------| 
F|--------------------------------------------------------------------------| 
C|--------------------------------------------------------------------------| 
G|--------------------------------------------------------------------------| 
C|--------------------------------------------------------------------------| 

D|--3h5--10t3t10--3h5--10t3t10--3h5--10t3-----------------------------------| 
A|--------------------------------------------------------------------------| 
F|--------------------------------------------------------------------------| 
C|--------------------------------------------------------------------------| 
G|--------------------------------------------------------------------------| 
C|--------------------------------------------------------------------------| 

D|--13t3h5p3--13t3h5p3--13t3h5p3--13t3h5p3----------------------------------| 
A|--------------------------------------------------------------------------| 
F|--------------------------------------------------------------------------| 
C|--------------------------------------------------------------------------| 
G|--------------------------------------------------------------------------| 
C|--------------------------------------------------------------------------| 

D|--12t3h5p3--12t3h5p3--12t3h5p3--12t3h5p3----------------------------------| 
A|--------------------------------------------------------------------------| 
F|--------------------------------------------------------------------------| 
C|--------------------------------------------------------------------------| 
G|--------------------------------------------------------------------------| 
C|--------------------------------------------------------------------------| 

D|--3h5--10t3t10--3h5--10t3t10--3h5--10t3-----------------------------------| 
A|--------------------------------------------------------------------------| 
F|--------------------------------------------------------------------------| 
C|--------------------------------------------------------------------------| 
G|--------------------------------------------------------------------------| 
C|--------------------------------------------------------------------------| 

D|--13t3h5p3--13t3h5p3--13t3h5p3--13t3h5p3----------------------------------| 
A|--------------------------------------------------------------------------| 
F|--------------------------------------------------------------------------| 
C|--------------------------------------------------------------------------| 
G|--------------------------------------------------------------------------| 
C|--------------------------------------------------------------------------| 

D|-15t3h5p3--15t3h5p3--12t3h5p3--12t3h5p3-----------------------------------| 
A|--------------------------------------------------------------------------| 
F|--------------------------------------------------------------------------| 
C|------------------------------------------0~------------------------------| 
G|------------------------------------------0~------------------------------| 
C|------------------------------------------0~------------------------------| 

D|--------------------------------------------------------------------------| 
A|--------------------------------------------------------------------------| 
F|--------------------------------------------------------------------------| 
C|---------------7------------------7------------------7--------------------| 
G|------0-0-0-0--5--0-0-0--0-0-0-0--5--0-0-0--0-0-0-0--5--------------------| 
C|-12/--0-0-0-0-----0-0-0--0-0-0-0-----0-0-0--0-0-0-0-----------------------| 
        . . . .     . . .  . . . .     . . .  . . . . 
D|--------------------------------------------------------------------------| 
A|--------------------------------------------------------------------------| 
F|--------------------------------------------------------------------------| 
C|-----------------7-------7-----------7------------------7-----------------| 
G|-0-0-0--0-0-0-0--5--0-0--5--0-0-0-0--5--0-0-0--0-0-0-0--5--0-0-0----------| 
C|-0-0-0--0-0-0-0-----0-0-----0-0-0-0-----0-0-0--0-0-0-0-----0-0-0----------| 
   . . .  . . . .     . .     . . . .     . . .  . . . .     . . . 
D|--------------------------------------------------------------------------| 
A|--------------------------------------------------------------------------| 
F|--------------------------------------------------------------------------| 
C|--------------------------------------------------------------------------| 
G|-0--0--0--0--0--0--0--0----0-0-0-0-0-0-0-0--------------------------------| 
C|-0--0--0--0--0--0--0--0----0-0-0-0-0-0-0-0--------------------------------| 
   .  .  .  .  .  .  .  .    . . . . . . . . 
D|--------------------------------------------------------------------------| 
A|--------------------------------------------------------------------------| 
F|--------------------------------------------------------------------------| 
C|------------------------------------------------------------1-------------| 
G|-0-0-0-0-0--0-0-0-0-0-0-0-0-----0-0-0-0-0--0-0-0-0-0-0-0-0--1--0-0-0-0-0--| 
C|-0-0-0-0-0--0-0-0-0-0-0-0-0--3*-0-0-0-0-0--0-0-0-0-0-0-0-0--1--0-0-0-0-0--| 
   . . . . .  . . . . . . . .     . . . . .  . . . . . . . .     . . . . . 
D|--------------------------------------------------------------------------| 
A|--------------------------------------------------------------------------| 
F|--------------------------------------------------------------------------| 
C|------------------1-------------------------1/4---------------------------| 
G|-0-0-0-0-0-0-0-0--1-------------------------1/4---------------------------| 
C|-0-0-0-0-0-0-0-0--1--0-0-0-0-0--0--0-0-0-0--1/4---------------------------| 
   . . . . . . . .     . . . . .     . . . .  
D|--------------------------------------------------------------------------| 
A|--------------------------------------------------------------------------| 
F|--------------------------------------------------------------------------| 
C|--------------------------------------------------------------------------| 
G|-0-0-0-0-0--0-0-0-0-0-0-0-0-----0-0-0-0-0--0-0-0-0-0-0-0-0--3*-0-0-0-0-0--| 
C|-0-0-0-0-0--0-0-0-0-0-0-0-0--3*-0-0-0-0-0--0-0-0-0-0-0-0-0-----0-0-0-0-0--| 
   . . . . .  . . . . . . . .     . . . . .  . . . . . . . .     . . . . . 
D|--------------------------------------------------------------------------| 
A|--------------------------------------------------------------------------| 
F|--------------------------------------------------------------------------| 
C|------------------1-------------------------3/5---------------------------| 
G|-0-0-0-0-0-0-0-0--1-------------------------1/3---------------------------| 
C|-0-0-0-0-0-0-0-0--1--0-0-0-0-0--0--0-0-0-0--------------------------------| 
   . . . . . . . .     . . . . .     . . . . 
D|--------------------------------------------------------------------------| 
A|--------------------------------------------------------------------------| 
F|--------------------------------------------------------------------------| 
C|------------------------------------------------------------1-------------| 
G|-0-0-0-0-0--0-0-0-0-0-0-0-0-----0-0-0-0-0--0-0-0-0-0-0-0-0--1--0-0-0-0-0--| 
C|-0-0-0-0-0--0-0-0-0-0-0-0-0--3*-0-0-0-0-0--0-0-0-0-0-0-0-0--1--0-0-0-0-0--| 
   . . . . .  . . . . . . . .     . . . . .  . . . . . . . .     . . . . . 
D|--------------------------------------------------------------------------| 
A|--------------------------------------------------------------------------| 
F|--------------------------------------------------------------------------| 
C|------------------1-------------------------1/4---------------------------| 
G|-0-0-0-0-0-0-0-0--1-------------------------1/4---------------------------| 
C|-0-0-0-0-0-0-0-0--1--0-0-0-0-0--0--0-0-0-0--1/4---------------------------| 
   . . . . . . . .     . . . . .     . . . .  
D|--------------------------------------------------------------------------| 
A|--------------------------------------------------------------------------| 
F|--------------------------------------------------------------------------| 
C|------------------------------------------------------------1-------------| 
G|-0-0-0-0-0--0-0-0-0-0-0-0-0-----0-0-0-0-0--0-0-0-0-0-0-0-0--1--0-0-0-0-0--| 
C|-0-0-0-0-0--0-0-0-0-0-0-0-0--3*-0-0-0-0-0--0-0-0-0-0-0-0-0--1--0-0-0-0-0--| 
   . . . . .  . . . . . . . .     . . . . .  . . . . . . . .     . . . . . 
D|--------------------------------------------------------------------------| 
A|--------------------------------------------------------------------------| 
F|--------------------------------------------------------------------------| 
C|------------------1-------------------------3/5---------------------------| 
G|-0-0-0-0-0-0-0-0--1-------------------------1/3---------------------------| 
C|-0-0-0-0-0-0-0-0--1--0-0-0-0-0--0--0-0-0-0--------------------------------| 
   . . . . . . . .     . . . . .     . . . . 
D|-3h5--10t3t10--3h5--10t3t10--3h5--10t3------------------------------------| 
A|--------------------------------------------------------------------------| 
F|--------------------------------------------------------------------------| 
C|--------------------------------------------------------------------------| 
G|--------------------------------------------------------------------------| 
C|--------------------------------------------------------------------------| 

D|-13t3h5p3--13t3h5p3--13t3h5p3--13t3h5p3-----------------------------------| 
A|--------------------------------------------------------------------------| 
F|--------------------------------------------------------------------------| 
C|--------------------------------------------------------------------------| 
G|--------------------------------------------------------------------------| 
C|--------------------------------------------------------------------------| 

D|-12t3h5p3--12t3h5p3--12t3h5p3--12t3h5p3-----------------------------------| 
A|--------------------------------------------------------------------------| 
F|--------------------------------------------------------------------------| 
C|--------------------------------------------------------------------------| 
G|--------------------------------------------------------------------------| 
C|--------------------------------------------------------------------------| 

D|-3h5--10t3t10--3h5--10t3t10--3h5--10t3------------------------------------| 
A|--------------------------------------------------------------------------| 
F|--------------------------------------------------------------------------| 
C|--------------------------------------------------------------------------| 
G|--------------------------------------------------------------------------| 
C|--------------------------------------------------------------------------| 

D|-13t3h5p3--13t3h5p3--13t3h5p3--13t3h5p3-----------------------------------| 
A|--------------------------------------------------------------------------| 
F|--------------------------------------------------------------------------| 
C|--------------------------------------------------------------------------| 
G|--------------------------------------------------------------------------| 
C|--------------------------------------------------------------------------| 

D|-15t3h5p3--15t3h5p3--12t3h5p3--12t3h5p3-----------------------------------| 
A|--------------------------------------------------------------------------| 
F|--------------------------------------------------------------------------| 
C|--------------------------------------------------------------------------| 
G|--------------------------------------------------------------------------| 
C|--------------------------------------------------------------------------| 

D|-3h5--10t3t10--3h5--10t3t10--3h5--10t3------------------------------------| 
A|--------------------------------------------------------------------------| 
F|--------------------------------------------------------------------------| 
C|--------------------------------------------------------------------------| 
G|--------------------------------------------------------------------------| 
C|--------------------------------------------------------------------------| 

D|-13t3h5p3--13t3h5p3--13t3h5p3--13t3h5p3-----------------------------------| 
A|--------------------------------------------------------------------------| 
F|--------------------------------------------------------------------------| 
C|--------------------------------------------------------------------------| 
G|--------------------------------------------------------------------------| 
C|--------------------------------------------------------------------------| 

D|-12t3h5p3--12t3h5p3--12t3h5p3--12t3h5p3-----------------------------------| 
A|--------------------------------------------------------------------------| 
F|--------------------------------------------------------------------------| 
C|--------------------------------------------------------------------------| 
G|--------------------------------------------------------------------------| 
C|--------------------------------------------------------------------------| 

D|-3h5--10t3t10--3h5--10t3t10--3h5--10t3------------------------------------| 
A|--------------------------------------------------------------------------| 
F|--------------------------------------------------------------------------| 
C|--------------------------------------------------------------------------| 
G|--------------------------------------------------------------------------| 
C|--------------------------------------------------------------------------| 

D|-13t3h5p3--13t3h5p3--13t3h5p3--13t3h5p3-----------------------------------| 
A|--------------------------------------------------------------------------| 
F|--------------------------------------------------------------------------| 
C|--------------------------------------------------------------------------| 
G|--------------------------------------------------------------------------| 
C|--------------------------------------------------------------------------| 

D|-15t3h5p3--15t3h5p3--12t3h5p3--12t3h5p3-----------------------------------| 
A|--------------------------------------------------------------------------| 
F|--------------------------------------------------------------------------| 
C|--------------------------------------------------------------------------| 
G|--------------------------------------------------------------------------| 
C|--------------------------------------------------------------------------| 

D|-3h5--10t3t10--3h5--10t3t10--3h5--10t3------------------------------------| 
A|--------------------------------------------------------------------------| 
F|--------------------------------------------------------------------------| 
C|--------------------------------------------------------------------------| 
G|--------------------------------------------------------------------------| 
C|--------------------------------------------------------------------------| 

D|-13t3h5p3--13t3h5p3--13t3h5p3--13t3h5p3-----------------------------------| 
A|--------------------------------------------------------------------------| 
F|--------------------------------------------------------------------------| 
C|--------------------------------------------------------------------------| 
G|--------------------------------------------------------------------------| 
C|--------------------------------------------------------------------------| 

D|-12t3h5p3--12t3h5p3--12t3h5p3--12t3h5p3-----------------------------------| 
A|--------------------------------------------------------------------------| 
F|--------------------------------------------------------------------------| 
C|--------------------------------------------------------------------------| 
G|--------------------------------------------------------------------------| 
C|--------------------------------------------------------------------------| 

D|-3h5--10t3t10--3h5--10t3t10--3h5--10t3------------------------------------| 
A|--------------------------------------------------------------------------| 
F|--------------------------------------------------------------------------| 
C|--------------------------------------------------------------------------| 
G|--------------------------------------------------------------------------| 
C|--------------------------------------------------------------------------| 

D|-13t3h5p3--13t3h5p3--13t3h5p3--13t3h5p3-----------------------------------| 
A|--------------------------------------------------------------------------| 
F|--------------------------------------------------------------------------| 
C|--------------------------------------------------------------------------| 
G|--------------------------------------------------------------------------| 
C|--------------------------------------------------------------------------| 

D|-15t3h5p3--15t3h5p3--12t3h5p3--12t3h5p3-----------------------------------| 
A|--------------------------------------------------------------------------| 
F|--------------------------------------------------------------------------| 
C|--------------------------------------------------------------------------| 
G|--------------------------------------------------------------------------| 
C|--------------------------------------------------------------------------| 

D|-3h5--10t3t10--3h5--10t3t10--3h5--10t3------------------------------------| 
A|--------------------------------------------------------------------------| 
F|--------------------------------------------------------------------------| 
C|--------------------------------------------------------------------------| 
G|--------------------------------------------------------------------------| 
C|--------------------------------------------------------------------------| 

D|-13t3h5p3--13t3h5p3--13t3h5p3--13t3h5p3-----------------------------------| 
A|--------------------------------------------------------------------------| 
F|--------------------------------------------------------------------------| 
C|--------------------------------------------------------------------------| 
G|--------------------------------------------------------------------------| 
C|--------------------------------------------------------------------------| 

D|-12t3h5p3--12t3h5p3--12t3h5p3--12t3h5p3-----------------------------------| 
A|--------------------------------------------------------------------------| 
F|--------------------------------------------------------------------------| 
C|--------------------------------------------------------------------------| 
G|--------------------------------------------------------------------------| 
C|--------------------------------------------------------------------------| 

D|-3h5--10t3t10--3h5--10t3t10--3h5--10t3------------------------------------| 
A|--------------------------------------------------------------------------| 
F|--------------------------------------------------------------------------| 
C|--------------------------------------------------------------------------| 
G|--------------------------------------------------------------------------| 
C|--------------------------------------------------------------------------| 

D|-13t3h5p3--13t3h5p3--13t3h5p3--13t3h5p3-----------------------------------| 
A|--------------------------------------------------------------------------| 
F|--------------------------------------------------------------------------| 
C|--------------------------------------------------------------------------| 
G|--------------------------------------------------------------------------| 
C|--------------------------------------------------------------------------| 

D|-15t3h5p3--15t3h5p3--12t3h5p3--12t3h5p3-----------------------------------| 
A|--------------------------------------------------------------------------| 
F|--------------------------------------------------------------------------| 
C|------------------------------------------0~------------------------------| 
G|------------------------------------------0~------------------------------| 
C|------------------------------------------0~------------------------------| 

************************************ 

| /   slide up 
| \   slide down 
| h   hammer-on 
| p   pull-off 
| ~   vibrato 
| +   harmonic 
| x   Mute note 
| b   Bend 
| pb  Pre-bend 
| br  Bend release 
| pbr Pre-bend release 
| brb Bend release bend 

************************************ 
		  

Full key step upFull key step up
Half key step upHalf key step up
Half key step downHalf key step down
Full key step downFull key step down
hide glossary

See also:

tabs The Kooks - See the world tabs Plain White T's - Hey There Delilah (ver. 2) tabs All American Rejects - Gives You Hell tabs Nino Rota - O Poderoso Chef„o tabs Fort Minor - High road tabs A Day to Remember - If It Means A Lot To You
e-chords

Other versions:

tabs BlessTheFall - Hollow Bodies
auto scroll beats size up size down change color hide chords drawings
tab show chords e-chords YouTube Clip e-chords hide all tabs e-chords go to top tab

share