BlessTheFall

Exodus

BlessTheFall

tabs

by  TARIKIKE

save to print version add songbook text version e-mail correct tuner
chordsukulelecavacokeyboardtabbassdrumsharmonicaflute Guitar Pro
close

there isn't a video lesson for this song

chords

Exodus

Key:  C More
Exodus Key GG
Exodus Key G#G#
Exodus Key AA
Exodus Key A#A#(one step down)
Exodus Key BB(half step down)
Exodus Key CC(original key)
Exodus Key C#C#(half step up)
Exodus Key DD(one step up)
Exodus Key D#D#
Exodus Key EE
Exodus Key FF
Exodus Key F#F#
	  		

Tuning: Drop C; C G C F A D 

Intro: Lead Fades in tapping 
D|--------------------------------------------------------------------------| 
A|??-------------------------------------------------------------------------| 
F|--------------------------------------------------------------------------| 
C|---12-0-7-0-12-0-12-0-7-0-12-0-7-0-12-0-12-0-7-0-12-0-12-0-7-0-12-0-12----| 
G|??-------------------------------------------------------------------------| 
C|--------------------------------------------------------------------------| 

|---------------------------------------------------------------------------------------------------| 
|---------------------------------------------------------------------------------------------------| 
|---------------------------------------------------------------------------------------------------| 
|---7-0-15-0-7-0-15-0-15-0-7-0-15-0-15-0-7-0-14-0-7-0-14-0-14-0-7-0-14-0-14-0-7-0-15-0-7-0-15-0-15--| 
|---------------------------------------------------------------------------------------------------| 
|---------------------------------------------------------------------------------------------------| 

Slide in the middle of taping. 
|------------------------| 
|------------------------| 
|------------------------| 
|------------------------| 
|----15\\\\\\\\\3--------| 
|----15\\\\\\\\\3--------| 

|---------------------------------------------------------------------| 
|---------------------------------------------------------------------| 
|---------------------------------------------------------------------| 
|---15-0-7-0-15-0-15-0-7-0-15-0-7-0-14-0-7-0-14-0-14-0-7-0-14-0-14-0--| 
|---------------------------------------------------------------------| 
|---------------------------------------------------------------------| 

|---------------------------------------------------| 
|--------------------------------------------------??|Repeat once. 
|---------------------------------------------------| 
|--7-0-18-0-7-0-18-0-18-0-7-0-15-0-7-0-14-0-7-0-12--| 
|--------------------------------------------------??| 
|---------------------------------------------------| 


        |---------<5>--| the <5> is a natural harmonic. 
        |---------<5>--| (1-1) 
        |---------<5>--| 
        |--0--0--------| This part is played right after repeating the tapping 
        |--0--0--------| for the second time in the intro and is not repeat again in the song. 
        |--0--0--------| 

verse 1 
|--------------------------------------------------------------| 
|??-------------------------------------------------------------| 
|--------------------------------------------------------------| 
|-------------0--0--0---------0--0--0--------------------------| 
|??--5-5-5-5-5-0--0--0-5-5-5-5-0--0--0-3-3-3-3-5-5-5-5-6-6-6-6--| 
|-------------0--0--0---------0--0--0--------------------------| 

|-----------------------------------------------------------------------------| 
|-----------------------------------------------------------------------------| 
|-----------------------------------------------------------------------------| 
|---------0--0--0---------0--0--0---8-5--------------0--0--0---------0--0--0--| 
|-5-5-5-5-0--0--0-5-5-5-5-0--0--0-5-----6-5--5-5-5-5-0--0--0-5-5-5-5-0--0--0--| 
|---------0--0--0---------0--0--0--------------------0--0--0---------0--0--0--| 

|------------------<5>-------------|----------|                        |--<5>--| 
|------------------<5>-------------|---------??|                        |--<5>--| (2-1) 
|----------------------------------|----------| Repeat from verse 1    |-------| 
|--0-10-0--0-1-3-0-----0-1h3-0-1-0-|----------|                        |-------| 
|--0-10-0--0-1-3-0-----0-1h3-0-1-0-|---------??|                        |-------| 
|--0-10-0--0-1-3-0-----0-1h3-0-1-0-|-5-4-1-4--|                        |-------| 
                                     PM---PM 
     ^10s                            first ending                       second time end with this. 

Break down before Chorus. All open notes, you can figure out the pattern. 

Chorus.  
   "I'm where you wanna be"   
|-------------------------|-----------------------------------------------------------------------| 
|------------------3---3--|??----------------------------------------------------------------------| 
|------3---3--------------|-----------------------------------------------------------------------| 
|----0---0---0---3---3----|---0--0-R-0----10--10--10--8--8-R-8----10--10-R-10----7-7-7-7-8--8-R-8-| 
|--1-----------3----------|??--0--0-R-0----10--10--10--8--8-R-8----10--10-R-10----7-7-7-7-8--8-R-8-|  
|-------------------------|---0--0-R-0----10--10--10--8--8-R-8----10--10-R-10----7-7-7-7-8--8-R-8-| 

|---------------------| 
|--------------------??| 
|---------------------|Repeat once then play the Tapping section once and the Verse 
|--8/10-10-10-10-10---|one more time. 
|--8/10-10-10-10-10--??| 
|--8/10-10-10-10-10---| 

After playing the verse the second time you end on the natural harmonic (2-1) 
and play the following before going into the Chorus. 

|------------------------------------------------------------------------------------| 
|------------------------------------------------------------------------------------| 
|------------------------------------------------------------------------------------| 
|--0--1--0--5--4--1h4-0-0-0-0-0---0-0-0-----0--1--0--5--4--1h4-0-0-0-0-0---0-0-0-----| Go to Chorus 
|--0--1--0--5--4--1h4-0-0-0-0-0---0-0-0-----0--1--0--5--4--1h4-0-0-0-0-0---0-0-0-----| 
|--0--1--0--5--4--1h4-0-0-0-0-0---0-0-0-----0--1--0--5--4--1h4-0-0-0-0-0---0-0-0-----| 

  "We Won't fall" 
|-------------------------------------------------------------------| 
|-------------------------------------------------------------------| 
|-------------------------------------------------------------------| 
|--7-7-7-7-7-7-7-7-7-7-7-7-8-8-8-8-8-8-8-8-10-10-10-10-10-10-10-10--| 
|--7-7-7-7-7-7-7-7-7-7-7-7-8-8-8-8-8-8-8-8-10-10-10-10-10-10-10-10--| 
|--7-7-7-7-7-7-7-7-7-7-7-7-8-8-8-8-8-8-8-8-10-10-10-10-10-10-10-10--| 

|-----------------------------------------------------------------| 
|??----------10---------------10---------------10---------------10-| 
|-----7---7----7---7---7---7----7---7---7---7----7---7---7---7----| 
|---0---0--------0---0---0--------0---0---0--------0---0---0------| 
|??----------------------------------------------------------------| 
|-----------------------------------------------------------------| 

-----------------------------------------------------------------------------------------| |-----| Repeat 4  
|----------------10---------------10---------------10---------------10---------------10-??| |--10-| times at the 
|--7---7---7---7----7---7---7---7----7---7---7---7----7---7---7---7----7---7---7---7-----| |--7--| end of the 
|----0---8---8--------8---8---8--------8---8---8--------8---8---8--------8---8---8-------| |--8--| 4th repeat 
|---------------------------------------------------------------------------------------??| |-----| play this 
|----------------------------------------------------------------------------------------| |-----| like a chord 

This is the ending section that is all palm muted. 
|-----------------------------------------------------------------------------------| 
|??---------------------------------------------------------------------------------??| Repeat one time then play  
|-----------------------------------------------------------------------------------| ending break down. 
|--0-0-0-0-0-0-0-0-0-0-0-0-0-0-0-0-8-8-8-8-8-8-8-8-5-5-5-5-5-5-5-5-8-8-8-8-8-8-8-8--| Again it's all open notes  
|??-0-0-0-0-0-0-0-0-0-0-0-0-0-0-0-0-8-8-8-8-8-8-8-8-5-5-5-5-5-5-5-5-8-8-8-8-8-8-8-8-??| and you can figure out the 
|--0-0-0-0-0-0-0-0-0-0-0-0-0-0-0-0-8-8-8-8-8-8-8-8-5-5-5-5-5-5-5-5-8-8-8-8-8-8-8-8--| pattern.  

| /   slide up 
| \   slide down 
| h   hammer-on 
| p   pull-off 
| ~   vibrato 
| +   harmonic 
| x   Mute note 
| b   Bend 
| pb  Pre-bend 
| br  Bend release 
| pbr Pre-bend release 
| brb Bend release bend 
		  

Full key step upFull key step up
Half key step upHalf key step up
Half key step downHalf key step down
Full key step downFull key step down
hide glossary

See also:

tabs Regina Spektor - Us tabs Plain White T's - Write You a Song tabs Panic! At The Disco - I write sins not tragedies tabs Epica - Run For A Fall tabs All American Rejects - Dirty little secret (ver.2) tabs Plain White T's - Hate (I really don't like you)
e-chords

Other versions:

tabs Rodox - Exodus tabs BlessTheFall - Exodus
auto scroll beats size up size down change color hide chords drawings
tab show chords e-chords YouTube Clip e-chords hide all tabs e-chords go to top tab

share