BlessTheFall

Bottomfeeder

BlessTheFall

tabs Expert expert

by  FERNSANTANA

save to print version add songbook text version e-mail correct tuner
chordsukulelecavacokeyboardtabbassdrumsharmonicaflute Guitar Pro
close

there isn't a video lesson for this song

chords

Bottomfeeder

	  		

e|---------------------------------------------------------------------------| 
B|-----------------------------------------------5h6p5-----------------------| 
G|---------------------------------------------------------------------------| 
D|0~----------------7---8-7--5h7h8-------7---8-------------------------------| 
A|0~-------8-5-5-5----5------------5-5-5---5---5-----------------------------| 
D|0~-------------------------------------------------------------------------| 

e|---------------------------------------------------------------------------| 
B|----------------------------------------6h8p6------------------------------| 
G|---------------------------------------------------------------------------| 
D|---------7---8-7--5h7h8-------7---8----------------------------------------| 
A|8-5-5-5----5------------5-5-5---5---5--------------------------------------| 
D|---------------------------------------------------------------------------| 

Pré-Refrão:
 
e|---------------------------------------------------------------------------| 
B|---------------------------------------------------------------------------| 
G|7-7-7-----9-9-9------------------------------------------------------------| 
D|x-x-x-----x-x-x-----0~-----0~----------------------------------------------| 
A|5-5-5-----7-7-7-----0~-----0~----------------------------------------------| 
D|--------------------0~-----0~----------------------------------------------| 

Refrão:
 
e|---------------------------------------------------------------------------| 
B|---------------------------------------------------------------------------| 
G|-------------14------------------------------------------------------------| 
D|-------15-------------------15---------------------------------------------| 
A|15h17-----17----17---15h17------17-----------------------------------------| 
D|---------------------------------------------------------------------------| 

e|---------------------------------------------------------------------------| 
B|---------------------------------------------------------------------------| 
G|---------------------------------------------------------------------------| 
D|---------------------------------------------------------------------------| 
A|---------------------------------------------------------------------------| 
D|1p0---1p0------------------------------------------------------------------| 

e|---------------------------------------------------------------------------| 
B|---------------------------------------------------------------------------| 
G|---------------------------------------------------------------------------| 
D|000----888---555--888------------------------------------------------------| 
A|000----888---555--888------------------------------------------------------| 
D|000----888---555--888------------------------------------------------------| 
		  

See also:

tabs The Kooks - See the world tabs Plain White T's - Hey There Delilah (ver. 2) tabs All American Rejects - Gives You Hell tabs Nino Rota - O Poderoso Chefão tabs Fort Minor - High road tabs A Day to Remember - If It Means A Lot To You
e-chords

Other versions:

tabs BlessTheFall - Bottomfeeder
auto scroll beats size up size down change color hide chords drawings
tab show chords e-chords YouTube Clip e-chords hide all tabs e-chords go to top tab

share