Blacklist Union

Out Of Touch

Blacklist Union

tabs

by  TERR_SCHMITZ

save to print version add songbook text version e-mail correct tuner
chordsukulelecavacokeyboardtabbassdrumsharmonicaflute Guitar Pro
close

there isn't a video lesson for this song

chords

Out Of Touch

	  		

-----------------------------| 
-----------------------------| 
----------x-5----------------| 
--2--2-2--x-5----5-----4-4-4-|  x8 
--2--2-2--x-3----5-5-5-4-4-4-| 
--0--0-0---------3-3-3-2-2-2-| 
                   *-* 
short mini-solo 

-----------------------------| 
-----------------------------| 
----9-9-9-9--9-9-9-9--x-9-9--|  x2 on last nine in second time playing slide up to this  
on the next bar. 
-----------------------------| 
-----------------------------| 
-----------------------------| 

--------------------------------------------| 
--------------------------------------------| 
--12-12-12-12---14-14-14/12--12-12-12-12/11-| 
--------------------------------------------| 
--------------------------------------------| 
--------------------------------------------| 
 
------------------------------| 
------------------------------| 
------------------------------| 
------------------------------| 
--2--2---2-2-2-2--2-2--2--2-2-| 
------------------------------| 

------------------------------| 
------------------------------| 
------------------------------| 
------------------------------| 
-/5--5---5-5-5-5--5-5--5--5-5-| 
------------------------------| 

-----------------------------------------| 
-----------------------------------------| 
-----------------------------------------| 
-----------------------------------------| 
-/12--12---12-12-12-12--12-12--12--12-12-| 
-----------------------------------------| 

------------------------------| 
------------------------------| 
------------------------------| 
------------------------------| 
-/4--4---4-4-4-4--4-4--4--4-4-| 
------------------------------| 

------------------------------| 
------------------------------| 
------------------------------| 
--2-------------2-------------| 
--2-------------2-------------| 
--0-------------0-------------| 

----------------------------------------| 
----------------------------------------| 
--------------5----5--5--5--5--5--5--5/-| 
--2--2--4-----5----5--5--5--5--5--5--5/-| 
--2--2--4-----3----3--3--3--3--3--3--3/-| 
--0--0--2-------------------------------| 

-----------------------------------------------| 
-----------------------------------------------| 
--3----3--3--3--3--5--3------------------------| 
--3----3--3--3--3--5--3----2--2--2--2--2--2--2-| 
--1----1--1--1--1--3--1----2--2--2--2--2--2--2-| 
---------------------------0--0--0--0--0--0--0-| 
		  

See also:

tabs Deep Purple - Burn tabs Deep Purple - Lazy tabs Deep Purple - Deep Purple - Smoke On The Water tabs Deep Purple - Stormbringer tabs Deep Purple - Demon's Eye tabs Albert Hammond Jr - Holiday
e-chords

Other versions:

tabs Blacklist Union - Out Of Touch
auto scroll beats size up size down change color hide chords drawings
tab show chords e-chords YouTube Clip e-chords hide all tabs e-chords go to top tab

share