Blackfoot

Not Another Maker

Blackfoot

tabs nolevel nolevel

by  EDUCASTILHO

save to print version add songbook text version e-mail correct tuner
chordsukulelecavacokeyboardtabbassdrumsharmonicaflute Guitar Pro
close

there isn't a video lesson for this song

chords

Not Another Maker

	  		

Intro 

e|-----------------|-------------------------------------------------| 
B|-----------------|-------------------------------------------------| 
G|-----------------|-------------------------------------------------| 
D|-----------------|----------------------------------------------5--| 
A|--------------9--|------7-------5---7-------5-------7---5----------| 
E|--------7/9------|--0-------7-----------7-------7-----------7------| 

e|-----------------------------------------------| 
B|-----------------------------------------------| 
G|-----------------------------------------------| 
D|-----------------------------------------------| 
A|------7-------5---7-------5-------7---------9--| 
E|--0-------7-----------7-------7-------7/9------| 

e|-------------------------------------------------| 
B|-------------------------------------------------| 
G|-------------------------------------------------| 
D|----------------------------------------------5--| 
A|------7-------5---7-------5-------7---5----------| 
E|--0-------7-----------7-------7-----------7------| 

e|-----------------------------------------------| 
B|-----------------------------------------------| 
G|-----------------------------------------------| 
D|-----------------------------------------------| 
A|------7-------5---7-------5-------7---------9--| 
E|--0-------7-----------7-------7-------7/9------| 

e|-------------------------------------------------| 
B|-------------------------------------------------| 
G|-------------------------------------------------| 
D|----------------------------------------------5--| 
A|------7-------5---7-------5-------7---5----------| 
E|--0-------7-----------7-------7-----------7------| 

e|-----------------------------------------------| 
B|-----------------------------------------------| 
G|-----------------------------------------------| 
D|-----------------------------------------------| 
A|------7-------5---7-------5-------7---------9--| 
E|--0-------7-----------7-------7-------7/9------| 

e|-------------------------------------------------| 
B|-------------------------------------------------| 
G|-------------------------------------------------| 
D|----------------------------------------------5--| 
A|------7-------5---7-------5-------7---5----------| 
E|--0-------7-----------7-------7-----------7------| 

e|-----------------------------------------------| 
B|-----------------------------------------------| 
G|--------------------------------------------7--| 
D|--------------------------------------7/9---7--| 
A|------7-------5---7-------5---7---7---7/9------| 
E|--0-------7-----------7------------------------| 

1st Chorus 

e|-------------------|-------------------|-----------------------------------| 
B|-------------------|-------------------|-----------------------------------| 
G|--9---------7---9--|--7---------7---9--|--6---6---0---4---2---4---2---0---2| 
D|--9---7/9---7---9--|--7---7/9---7---9--|--6---6---0---4---2---4---2---0---2| 
A|------7/9----------|--5---7/9----------|--4---4---0---2---0---4---2---0---0| 
E|-------------------|-------------------|-----------------------------------| 

e|-----------------------------|---------------|-------------------| 
B|-----------------------------|---------------|-------------------| 
G|--2-------2-------2---7---9--|--------7---9--|--7---------7---9--| 
D|--2-------2-------2---7---9--|--7/9---7---9--|--7---7/9---7---9--| 
A|--0-------0-------0---5---7--|--7/9----------|--5---7/9----------| 
E|------3-------3-----------0--|---------------|-------------------| 

e|-------------------------------------| 
B|-------------------------------------| 
G|--6---6---0---4---2---4---2---0---2--| 
D|--6---6---0---4---2---4---2---0---2--| 
A|--4---4---0---2---0---4---2---0---0--| 
E|-------------------------------------| 

1st Verse ( Clean Tone) 

    Let Ring --------------------------------------------------------------| 

e|--0-----------0---0----------------------|----------------3---0----------| 
B|--0-------0-----------0---------------0--|--0h1---3---1-----------3---1--| 
G|--0---0-------------------0-------0------|--2----------------------------| 
D|--2---------------------------0----------|--2----------------------------| 
A|--2--------------------------------------|--0----------------------------| 
E|--0--------------------------------------|-------------------------------| 

    Let Ring ------------------------------------| 

e|--2-----------3---2----------------------------|---------------------------| 
B|--3-------3-----------3--------------3---------|---------5--5--5---4-------| 
G|--2---2----------------------0----------0------|-4---4-------------4-------| 
D|--0------------------------------2----------2--|-4-------------------------| 
A|--------------------------3--------------------|-2-------------------------| 
E|-----------------------------------------------|----------------------0h3b-| 

    Let Ring --------------------------------------------------------------| 

e|--0-----------0---0----------------------|----------------3---0----------| 
B|--0-------0-----------0---------------0--|--0h1---3---1-----------3---1--| 
G|--0---0-------------------0-------0------|--2----------------------------| 
D|--2---------------------------0----------|--2----------------------------| 
A|--2--------------------------------------|--0----------------------------| 
E|--0--------------------------------------|-------------------------------| 

                              (Over Driven)      
e|---------------------------|-------------------------------| 
B|----------------3-------3--|--------------5----------------| 
G|------2---0h2-------2------|--4---4---4---4---4---------7--| 
D|--0------------------------|--4---4---4---4---4---7/9---7--| 
A|---------------------------|--2---2---2---2---2---7/9------| 
E|---------------------------|-------------------------------| 

2nd Chorus 

e|-------------------|-------------------|-----------------------------------| 
B|-------------------|-------------------|-----------------------------------| 
G|--9---------7---9--|--7---------7---9--|--6---6---0---4---2---4---2---0---2| 
D|--9---7/9---7---9--|--7---7/9---7---9--|--6---6---0---4---2---4---2---0---2| 
A|------7/9----------|--5---7/9----------|--4---4---0---2---0---4---2---0---0| 
E|-------------------|-------------------|-----------------------------------| 

e|-----------------------------|---------------|-------------------| 
B|-----------------------------|---------------|-------------------| 
G|--2-------2-------2---7---9--|--------7---9--|--7---------7---9--| 
D|--2-------2-------2---7---9--|--7/9---7---9--|--7---7/9---7---9--| 
A|--0-------0-------0---5---7--|--7/9----------|--5---7/9----------| 
E|------3-------3-----------0--|---------------|-------------------| 

e|-------------------------------------| 
B|-------------------------------------| 
G|--6---6---0---4---2---4---2---0---2--| 
D|--6---6---0---4---2---4---2---0---2--| 
A|--4---4---0---2---0---4---2---0---0--| 
E|-------------------------------------| 

2nd Verse (Clean Tone) 

    Let Ring --------------------------------------------------------------| 

e|--0-----------0---0----------------------|----------------------------3--| 
B|--0-------0-----------0---------------0--|--------------3---1---0h1------| 
G|--0---0-------------------0-------0------|----------2--------------------| 
D|--2---------------------------0----------|------2------------------------| 
A|--2--------------------------------------|--0----------------------------| 
E|--0--------------------------------------|-------------------------------| 

   Let Ring --------------| 

e|--2-----------3---2------------------|------------------| 
B|--3-------3-----------3-----------3--|-----5---4---4----| 
G|--2---2---------------------------0--|-4---4---4---4----| 
D|--0-------------------------2-----2--|-4---4---4---4----| 
A|--------------------------0h3--------|-2----------------| 
E|-------------------------------------|------------------| 

    Let Ring --------------------------------------------------------------| 

e|--0-----------0---0----------------------|----------------3---0----------| 
B|--0-------0-----------0---------------0--|--0h1---3---1-----------3---1--| 
G|--0---0-------------------0-------0------|--2----------------------------| 
D|--2---------------------------0----------|--2----------------------------| 
A|--2--------------------------------------|--0----------------------------| 
E|--0--------------------------------------|-------------------------------| 

   Let Ring ------------------------------------| 
                                                  (Over Driven Tone) 
e|--2-----------3---2----------------------------|--------------------------| 
B|--3-------3-----------3--------------3---------|----------5------------7--| 
G|--2---2----------------------0----------0------|-4--4--4--4---4--------7--| 
D|--0------------------------------2----------2--|-4--4--4--4---4---7/9-----| 
A|--------------------------3--------------------|-2--2--2--2---2---7/9-----| 
E|-----------------------------------------------|--------------------------| 

3rd Chorus 

e|-------------------|-------------------|-----------------------------------| 
B|-------------------|-------------------|-----------------------------------| 
G|--9---------7---9--|--7---------7---9--|--6---6---0---4---2---4---2---0---2| 
D|--9---7/9---7---9--|--7---7/9---7---9--|--6---6---0---4---2---4---2---0---2| 
A|------7/9----------|--5---7/9----------|--4---4---0---2---0---4---2---0---0| 
E|-------------------|-------------------|-----------------------------------| 

e|-----------------------------|---------------|-------------------| 
B|-----------------------------|---------------|-------------------| 
G|--2-------2-------2---7---9--|--------7---9--|--7---------7---9--| 
D|--2-------2-------2---7---9--|--7/9---7---9--|--7---7/9---7---9--| 
A|--0-------0-------0---5---7--|--7/9----------|--5---7/9----------| 
E|------3-------3-----------0--|---------------|-------------------| 


e|-------------------------------------|----------| 
B|-------------------------------------|----------| 
G|--6---6---0---4---2---4---2---0---2--|-----7----| 
D|--6---6---0---4---2---4---2---0---2--|-----7----| 
A|--4---4---0---2---0---4---2---0---0--|-----5----| 
E|-------------------------------------|----------| 

e|-------------------|-------------------|-----------------------------------| 
B|-------------------|-------------------|-----------------------------------| 
G|--9---------7---9--|--7---------7---9--|--6---6---0---4---2---4---2---0---2| 
D|--9---7/9---7---9--|--7---7/9---7---9--|--6---6---0---4---2---4---2---0---2| 
A|--7---7/9----------|--5---7/9----------|--4---4---0---2---0---4---2---0---0| 
E|--0----------------|-------------------|-----------------------------------| 

3rd Verse (Clean Tone) 

    Let Ring -----------------------------| 

e|--0-----------0---0----------------------|------------------3---0---| 
B|--0-------0-----------0---------------0--|--1---0h1---3p1-----------| 
G|--0---0-------------------0-------0------|--2-----------------------| 
D|--2---------------------------0----------|--2-----------------------| 
A|--2--------------------------------------|--0-----------------------| 
E|--0--------------------------------------|--------------------------| 

   (Over Driven Tone) 
e|------------------------|----------------------------------| 
B|--3------------------3--|----------------------------------| 
G|--2---0h2------------0--|-----4---2---4p2-------2-------2--| 
D|--0------------------2--|-4---4---2---4p2-------2-------2--| 
A|------------0h3---------|-2-----------------x-------x------| 
E|------------------------|----------------------------------| 

 (Clean Tone) 

e|-----0-----|----------------3--|------------------------| 
B|-----0-----|--1---0h1---3------|--3------------------3--| 
G|-----0-----|--2----------------|--2---0h2------------0--| 
D|-----2-----|--2----------------|--0------------------2--| 
A|-----2-----|--0----------------|------------0h3---------| 
E|-----0-----|-------------------|------------------------| 

 (Over Driven)   

e|------------------------------------------------| 
B|------------------------------------------------| 
G|--8--8--8--8--8--8--8--8--8--8--8--8--8--8--8\--| 
D|--9--9--9--9--9--9--9--9--9--9--9--9--9--9--9\--| 
A|--9--9--9--9--9--9--9--9--9--9--9--9--9--9--9\--| 
E|------------------------------------------------| 

Bridge 

e|-----------------------------------|--5------------------------| 
B|-----------------------------------|--5------------------------| 
G|------------------------------7h9--|--5---4h5---7--------------| 
D|--10---10---10---10---9---9---7h9--|--7---5-----7--------------| 
A|--8----8----8----8----7---7--------|------------5---3---2---0--| 
E|-----------------------------------|---------------------------| 

e|---------------------------|-------------------------|---------------------| 
B|---------------------------|--1---1---1---1---1---1--|---------------------| 
G|--10---10---10---9----7h9--|--2---2---2---2---2---2--|--10---9h10---9---7h9| 
D|--10---10---10---9----7h9--|--2---2---2---2---2---2--|--10---10-----9---7h9| 
A|--8----8----8----7---------|--0---0---0---0---0---0--|--8-----------7------| 
E|---------------------------|-------------------------|---------------------| 

e|--5------------------------|------------------------------------------| 
B|--5------------------------|--10---10---10---10---10---10-------------| 
G|--5---4h5---7--------------|--10---10---10---10---10---10---9----7h9--| 
D|--7---5-----7--------------|--10---10---10---10---10---10---9----7h9--| 
A|------------5---3---2---0--|--8----8----8----8----8----8----7---------| 
E|---------------------------|------------------------------------------| 

e|------------------|--------------------| 
B|------------------|--------------------| 
G|------------------|--------------------| 
D|---7--------------|---2----------------| 
A|---7--------------|---2----------------| 
E|---5-------3b-----|---0---------3b-----| 

Solo 

e|------------------------------------------| 
B|------------8-----------------------------| 
G|--9b---9b-------9b---9br---7---9---9---7--| 
D|------------------------------------------| 
A|------------------------------------------| 
E|------------------------------------------| 

e|----------------------------------------------------| 
B|-------------------------------------------------8--| 
G|---------------------------------------7---7/9------| 
D|--9\7---5---7hbrhb---5-------5---7/9----------------| 
A|-------------------------7--------------------------| 
E|----------------------------------------------------| 

e|--------10-----------------------------------------------------| 
B|--10b--------10br---8---10-------8h10p8-------12p10---12-------| 
G|-----------------------------9------------9----------------13--| 
D|---------------------------------------------------------------| 
A|---------------------------------------------------------------| 
E|---------------------------------------------------------------| 

e|---------------------------------------------------------------------| 
B|--12--------15--------12h13p12--------12--------12-------------------| 
G|-------14--------14--------------14--------14--------11---14br---12--| 
D|---------------------------------------------------------------------| 
A|---------------------------------------------------------------------| 
E|---------------------------------------------------------------------| 

e|--------12-------------------------------------| 
B|--15b---------------------------------------7--| 
G|-------------14br---12---14~~~---12-----------| 
D|---------------------------------------14------| 
A|-----------------------------------------------| 
E|-----------------------------------------------| 

e|----------------------------------------------------| 
B|--8---7-------7-------------------------------------| 
G|----------9-------10p9p7-------9---7---9hbrhbr---7--| 
D|---------------------------9------------------------| 
A|----------------------------------------------------| 
E|----------------------------------------------------| 

e|-------------------------------------------------| 
B|---------10-----------12---15b---15---17---17br--| 
G|--8/11--------10/13------------------------------| 
D|-------------------------------------------------| 
A|-------------------------------------------------| 
E|-------------------------------------------------| 

e|---------------------------------------------------------------------------| 
B|--15---17--------15--------12-------------------------------------------15-| 
G|------------16--------14--------12---12---14---12--------12----------------| 
D|----------------------------------------------------14--------14---12------| 
A|---------------------------------------------------------------------------| 
E|---------------------------------------------------------------------------| 

e|---------------------|---------------------------------------------| 
B|----15b-----17br-----|-------15---17--------8----------------------| 
G|---------------------|--16-------------16-------9-------7---9---7--| 
D|---------------------|------------------------------9--------------| 
A|---------------------|---------------------------------------------| 
E|---------------------|---------------------------------------------| 

e|------------------------------------------------------| 
B|----------7---8-------7h8p7-------7----------------8--| 
G|--7---9-----------9-----------9-------9---7---9b------| 
D|------------------------------------------------------| 
A|------------------------------------------------------| 
E|------------------------------------------------------| 

e|----------------------------------------------------| 
B|--10---12---13p12--------12-------------------------| 
G|--------------------14--------14brb---12---14---12--| 
D|----------------------------------------------------| 
A|----------------------------------------------------| 
E|----------------------------------------------------| 

e|-----------------------------|---------------------------------------------| 
B|--15b---15b---15b---11p10p8--|--10br---8---10---8---7----------------------| 
G|-----------------------------|--------------------------7---9--------------| 
D|-----------------------------|----------------------------------9\7---5---7| 
A|-----------------------------|---------------------------------------------| 
E|-----------------------------|---------------------------------------------| 

e|----------------------------------------|----------------------------------| 
B|----------------------------------------|-------------------10-------------| 
G|------------7br---7b--------------------|--------7---9/11--------14br---12-| 
D|--7br---5--------------7br---5---7---5--|--7/9-----------------------------| 
A|----------------------------------------|----------------------------------| 
E|----------------------------------------|----------------------------------| 

e|-------------------| 
B|----15b----15b-----| 
G|-------------------| 
D|-------------------| 
A|-------------------| 
E|-------------------| 

4th Verse w/ Fills  

e|--------|---------------|--12----------------------------------------------| 
B|--------|--15b---12h15--|------12---15-------------------------------------| 
G|--------|---------------|---------------14br--12--14--12--11h12p11---------| 
D|--------|---------------|--------------------------------------------14--12| 
A|--------|---------------|--------------------------------------------------| 
E|--------|---------------|--------------------------------------------------| 

         Let Ring ----------------------------------------------------| 
        (Clean Tone) 
e|-----------0---0----------------------|----------------3---0---------| 
B|-------0-----------0---------------0--|--0h1---3---1-----------3--1--| 
G|-----------------------0-------0------|--2---------------------------| 
D|--14-----------------------0----------|--2---------------------------| 
A|--------------------------------------|--0---------------------------| 
E|--------------------------------------|------------------------------| 

(Over Driven) 

e|--15br---15---14---12-----------------|------------------------------------| 
B|------------------------15---13---12--|-----------------------------17b----| 
G|--------------------------------------|--14---12---14br---12---14----------| 
D|--------------------------------------|------------------------------------| 
A|--------------------------------------|---------------------------------12\| 
E|--------------------------------------|---------------------------------12\| 
4th Chorus 

e|-------------------|-------------------|-----------------------------------| 
B|-------------------|-------------------|-----------------------------------| 
G|--9---------7---9--|--7---------7---9--|--6---6---0---4---2---4---2---0---2| 
D|--9---7/9---7---9--|--7---7/9---7---9--|--6---6---0---4---2---4---2---0---2| 
A|------7/9----------|--5---7/9----------|--4---4---0---2---0---4---2---0---0| 
E|-------------------|-------------------|-----------------------------------| 

e|-----------------------------|---------------|-------------------| 
B|-----------------------------|---------------|-------------------| 
G|--2-------2-------2---7---9--|--------7---9--|--7---------7---9--| 
D|--2-------2-------2---7---9--|--7/9---7---9--|--7---7/9---7---9--| 
A|--0-------0-------0---5---7--|--7/9----------|--5---7/9----------| 
E|------3-------3-----------0--|---------------|-------------------| 

e|-------------------------------------|----------| 
B|-------------------------------------|----------| 
G|--6---6---0---4---2---4---2---0---2--|-----7----| 
D|--6---6---0---4---2---4---2---0---2--|-----7----| 
A|--4---4---0---2---0---4---2---0---0--|-----5----| 
E|-------------------------------------|----------| 

e|-------------------|-------------------|-----------------------------------| 
B|-------------------|-------------------|-----------------------------------| 
G|--9---------7---9--|--7---------7---9--|--6---6---0---4---2---4---2---0---2| 
D|--9---7/9---7---9--|--7---7/9---7---9--|--6---6---0---4---2---4---2---0---2| 
A|--7---7/9----------|--5---7/9----------|--4---4---0---2---0---4---2---0---0| 
E|--0----------------|-------------------|-----------------------------------| 

e|----------|-------------------|-------------------|-----------------| 
B|----------|-------------------|-------------------|-----------------| 
G|-----7----|--9---------7---9--|--7---------7---9--|--6---6---0---4--| 
D|-----7----|--9---7/9---7---9--|--7---7/9---7---9--|--6---6---0---4--| 
A|-----5----|--7---7/9----------|--5---7/9----------|--4---4---0---2--| 
E|----------|--0----------------|-------------------|-----------------| 

e|-------------------------|--------------| 
B|-------------------------|--8-----8-----| 
G|--2---2---2---5---5---5--|--7-----7-----| 
D|--2---2---2---5---5---5--|--6-----6-----| 
A|--0---0---0---3---3---3--|--7-----7-----| 
E|-------------------------|--------------| 

Guitar II (Over Driven) 

Intro 

e|-----------------|-------------------------------------------------| 
B|-----------------|-------------------------------------------------| 
G|-----------------|-------------------------------------------------| 
D|-----------------|----------------------------------------------5--| 
A|--------------9--|------7-------5---7-------5-------7---5----------| 
E|--------7/9------|--0-------7-----------7-------7-----------7------| 

e|-------------------------------------------| 
B|-------------------------------------------| 
G|-------------------------------------------| 
D|-------------------------------------------| 
A|--7-------5---7-------5-------7---------9--| 
E|------7-----------7-------7-------7/9------| 

e|-------------------------------------------------| 
B|-------------------------------------------------| 
G|-------------------------------------------------| 
D|----------------------------------------------5--| 
A|------7-------5---7-------5-------7---5----------| 
E|--0-------7-----------7-------7-----------7------| 

e|-------------------------------------------| 
B|-------------------------------------------| 
G|-------------------------------------------| 
D|-------------------------------------------| 
A|--7-------5---7-------5-------7---------9--| 
E|------7-----------7-------7-------7/9------| 

e|---------------------------------------------------| 
B|---------------------------------------------------| 
G|------9-------7/9-------------------------------7--| 
D|------9---9---7/9-------7-------9-------7----------| 
A|----------9---------9-------9-------9-------9------| 
E|--0------------------------------------------------| 

e|-------------------------------------------| 
B|-------------------------------------------| 
G|--9-------7/9------------------------------| 
D|--9---9---7/9-------7-------9----------11--| 
A|------9---------9-------9-------9/11-------| 
E|-------------------------------------------| 

e|---------------------------------------------------| 
B|---------------------------------------------------| 
G|------9-------7/9-------------------------------7--| 
D|------9---9---7/9-------7-------9-------7----------| 
A|----------9---------9-------9-------9-------9------| 
E|--0------------------------------------------------| 

e|-------------------------------------------| 
B|-------------------------------------------| 
G|--9-------7/9---------------9----------11--| 
D|--9---9---7/9-------7-------9---9/11---11--| 
A|------9---------9-------9-------9/11-------| 
E|-------------------------------------------| 

1st Chorus 

e|-----------------------|-----------------------| 
B|------8----------------|------2----------------| 
G|--9---7---------7---9--|--7---3---------7---9--| 
D|--9-------7/9---7---9--|--7-------7/9---7---9--| 
A|--7-------7/9----------|--5-------7/9----------| 
E|--0--------------------|-----------------------| 

e|-------------------------------------|-----------------------------| 
B|-------------------------------------|-----------------------------| 
G|--6---6---0---4---2---4---2---0---2--|--2-------2-------2---7---9--| 
D|--6---6---0---4---2---4---2---0---2--|--2-------2-------2---7---9--| 
A|--4---4---0---2---0---4---2---0---0--|--0-------0-------0---5---7--| 
E|-------------------------------------|------3-------3-----------0--| 

e|-------------------|-----------------------| 
B|--8----------------|------2----------------| 
G|--7---------7---9--|--7---3---------7---9--| 
D|------7/9---7---9--|--7-------7/9---7---9--| 
A|------7/9----------|--5-------7/9----------| 
E|-------------------|-----------------------| 

e|-------------------------------------| 
B|-------------------------------------| 
G|--6---6---0---4---2---4---2---0---2--| 
D|--6---6---0---4---2---4---2---0---2--| 
A|--4---4---0---2---0---4---2---0---0--| 
E|-------------------------------------| 

1st Verse (Clean Tone) 

    Let Ring ------------------------------| 

e|-----------------------------------------| 
B|--------------0---3---0---------------3--| 
G|----------0---------------0-------0------| 
D|------2-----------------------2----------| 
A|-----------------------------------------| 
E|--0--------------------------------------| 

    Let Ring ------------------------------------------| 

e|--------------------------3---0----------------------| 
B|--------------1---3---1-----------3---1-----------3--| 
G|----------2-----------------------------------0------| 
D|------2-----------------------------------2----------| 
A|--0--------------------------------------------------| 
E|-----------------------------------------------------| 

    Let Ring -------------------------------------| 

e|--------------2h3p2------------------------------|-------------------------| 
B|------3---------------3---3-----------3----------|------4h5---5---4--------| 
G|--2-------2---------------0-------0-------0------|--4---4-----4---4--------| 
D|--0-----------------------2---2---------------2--|--4---4-----4---4--------| 
A|--------------------------3----------------------|--2----------------------| 
E|-------------------------------------------------|--------------------0h3b-| 
    Let Ring ------------------------------| 

e|-----------------------------------------| 
B|--------------0---3---0---------------3--| 
G|----------0---------------0-------0------| 
D|------2-----------------------2----------| 
A|-----------------------------------------| 
E|--0--------------------------------------| 

    Let Ring ------------------------------------------| 

e|--------------------------3---0----------------------| 
B|--------------1---3---1-----------3---1-----------3--| 
G|----------2-----------------------------------0------| 
D|------2-----------------------------------2----------| 
A|--0--------------------------------------------------| 
E|-----------------------------------------------------| 

    Let Ring ---------------------------------| 
                                        (Over Driven Tone) 
e|--------------2h3p2------------------------------|------| 
B|------3---------------3---3-----------3----------|------| 
G|--2-------2---------------0-------0-------0------|----4/| 
D|--0-----------------------2---2---------------2--|----4/| 
A|--------------------------3----------------------|----2/| 
E|-------------------------------------------------|------| 

2nd Chorus 

e|----------------------|-----------------------| 
B|-----8----------------|------2----------------| 
G|/9---7---------7---9--|--7---3---------7---9--| 
D|/9-------7/9---7---9--|--7-------7/9---7---9--| 
A|/7-------7/9----------|--5-------7/9----------| 
E|/0--------------------|-----------------------| 

e|-------------------------------------|-----------------------------| 
B|-------------------------------------|-----------------------------| 
G|--6---6---0---4---2---4---2---0---2--|--2-------2-------2---7---9--| 
D|--6---6---0---4---2---4---2---0---2--|--2-------2-------2---7---9--| 
A|--4---4---0---2---0---4---2---0---0--|--0-------0-------0---5---7--| 
E|-------------------------------------|------3-------3-----------0--| 

e|-------------------|-----------------------| 
B|--8----------------|------2----------------| 
G|--7---------7---9--|--7---3---------7---9--| 
D|------7/9---7---9--|--7-------7/9---7---9--| 
A|------7/9----------|--5-------7/9----------| 
E|-------------------|-----------------------| 

e|-------------------------------------| 
B|-------------------------------------| 
G|--6---6---0---4---2---4---2---0---2--| 
D|--6---6---0---4---2---4---2---0---2--| 
A|--4---4---0---2---0---4---2---0---0--| 
E|-------------------------------------| 

2nd Verse (clean Tone) 

    Let Ring ------------------------------| 

e|-----------------------------------------| 
B|--------------0---3---0---------------3--| 
G|----------0---------------0-------0------| 
D|------2-----------------------2----------| 
A|-----------------------------------------| 
E|--0--------------------------------------| 

    Let Ring ------------------------------------------| 

e|--------------------------3---0----------------------| 
B|--------------1---3---1-----------3---1-----------3--| 
G|----------2-----------------------------------0------| 
D|------2-----------------------------------2----------| 
A|--0--------------------------------------------------| 
E|-----------------------------------------------------| 

    Let Ring -------------------------------------| 

e|--------------2h3p2------------------------------|-------------------------| 
B|------3---------------3---3-----------3----------|----4h5---5---4----------| 
G|--2-------2---------------0-------0-------0------|-4--4-----4---4----------| 
D|--0-----------------------2---2---------------2--|-4--4-----4---4--2-------| 
A|--------------------------3----------------------|-2------------------2----| 
E|-------------------------------------------------|----------------------3b-| 

    Let Ring--------------------------------| 

e|-----------------------------------------| 
B|--------------0---3---0---------------3--| 
G|----------0---------------0-------0------| 
D|------2-----------------------2----------| 
A|-----------------------------------------| 
E|--0--------------------------------------| 

    Let Ring ------------------------------------------| 

e|--------------------------3---0----------------------| 
B|--------------1---3---1-----------3---1-----------3--| 
G|----------2-----------------------------------0------| 
D|------2-----------------------------------2----------| 
A|--0--------------------------------------------------| 
E|-----------------------------------------------------| 

    Let Ring -------------------------------------| 
                                                  (Over Driven Tone) 
e|--------------2h3p2------------------------------|------| 
B|------3---------------3---3-----------3----------|------| 
G|--2-------2---------------0-------0-------0------|----4/| 
D|--0-----------------------2---2---------------2--|----4/| 
A|--------------------------3----------------------|----2/| 
E|-------------------------------------------------|------| 

3rd Chorus 

e|----------------------|-----------------------| 
B|-----8----------------|------2----------------| 
G|/9---7---------7---9--|--7---3---------7---9--| 
D|/9-------7/9---7---9--|--7-------7/9---7---9--| 
A|/7-------7/9----------|--5-------7/9----------| 
E|/0--------------------|-----------------------| 

e|-------------------------------------|-----------------------------| 
B|-------------------------------------|-----------------------------| 
G|--6---6---0---4---2---4---2---0---2--|--2-------2-------2---7---9--| 
D|--6---6---0---4---2---4---2---0---2--|--2-------2-------2---7---9--| 
A|--4---4---0---2---0---4---2---0---0--|--0-------0-------0---5---7--| 
E|-------------------------------------|------3-------3-----------0--| 

e|-------------------|-----------------------| 
B|--8----------------|------2----------------| 
G|--7---------7---9--|--7---3---------7---9--| 
D|------7/9---7---9--|--7-------7/9---7---9--| 
A|------7/9----------|--5-------7/9----------| 
E|-------------------|-----------------------| 

e|-------------------------------------|--------------------------| 
B|-------------------------------------|--------------------------| 
G|--6---6---0---4---2---4---2---0---2--|--2---2---2---2---2---7---| 
D|--6---6---0---4---2---4---2---0---2--|--2---2---2---2---2---7---| 
A|--4---4---0---2---0---4---2---0---0--|--0---0---0---0---0---5---| 
E|-------------------------------------|--------------------------| 

e|-----------------------|-----------------------| 
B|------8----------------|------2----------------| 
G|--9---7---------7---9--|--7---3---------7---9--| 
D|--9-------7/9---7---9--|--7-------7/9---7---9--| 
A|--7-------7/9----------|--5-------7/9----------| 
E|--0--------------------|-----------------------| 

e|-------------------------------------| 
B|-------------------------------------| 
G|--6---6---0---4---2---4---2---0---2--| 
D|--6---6---0---4---2---4---2---0---2--| 
A|--4---4---0---2---0---4---2---0---0--| 
E|-------------------------------------| 

3rd Verse (Clean Tone) 

    Let Ring ----------------------------------| 

e|---------------------------------------------| 
B|--------------3-------3-----------3----------| 
G|----------0-------0-------0-----------0------| 
D|------2-----------------------2-----------2--| 
A|---------------------------------------------| 
E|--0------------------------------------------| 

    Let Ring ---------------------------------------| 

e|--------------------------3-----------3-----------| 
B|--------------1---3---1-------1-----------1-------| 
G|----------2-----------------------0-----------0---| 
D|------2-------------------------------------------| 
A|--0-----------------------------------------------| 
E|--------------------------------------------------| 

    Let Ring --------------------------------------| 

e|--------------2h3p2------------------------------| 
B|------3---------------3---3-----------3----------| 
G|--2-------2---------------0-------0-------0------| 
D|--0-----------------------2---2---------------2--| 
A|--------------------------3----------------------| 
E|-------------------------------------------------| 

e|--------------------------------------------------| 
B|--------------5-----------4-----------4-----------| 
G|----------4-------4-----------4-----------4-------| 
D|------4---------------4-----------4---------------| 
A|--2-----------------------------------------------| 
E|----------------------------------------------3b--| 


    Let Ring ----------------------------------| 

e|---------------------------------------------| 
B|--------------3-------3-----------3----------| 
G|----------0-------0-------0-----------0------| 
D|------2-----------------------2-----------2--| 
A|---------------------------------------------| 
E|--0------------------------------------------| 

    Let Ring ---------------------------------------| 

e|--------------------------3-----------3-----------| 
B|--------------1---3---1-------1-----------1-------| 
G|----------2-----------------------0-----------0---| 
D|------2-------------------------------------------| 
A|--0-----------------------------------------------| 
E|--------------------------------------------------| 

    Let Ring --------------------------------------| 

e|--------------2h3p2------------------------------| 
B|------3---------------3---3-----------3----------| 
G|--2-------2---------------0-------0-------0------| 
D|--0-----------------------2---2---------------2--| 
A|--------------------------3----------------------| 
E|-------------------------------------------------| 

  P.M.----------------------------------------------| 
e|-----------------------------------------------------| 
B|-----------------------------------------------------| 
G|--4--4--4--4--4--4--4--4--4--4--4--4--4--4--4----0---| 
D|--4--4--4--4--4--4--4--4--4--4--4--4--4--4--4----0---| 
A|--2--2--2--2--2--2--2--2--2--2--2--2--2--2--2----0---| 
E|-----------------------------------------------------| 

Bridge 

  P.M.-----------------------------|   
e|-----------------------------------------------|-----------------2---------| 
B|-----------------------------------------------|-----------3h1---3---------| 
G|--------------------------------------0h1---0--|--2--2--2--2-----2---------| 
D|--3---3---3---3---3---3---2---2---2---2-----0--|--2--2--2--2---------------| 
A|--3---3---3---3---3---3---2---2---2---2--------|--0--0--0-----------3--2--0| 
E|--1---1---1---1---1---1---0---0---0------------|---------------------------| 

e|---------------------|-------------------------| 
B|---------------------|--1---1---1---3p1---0h1--| 
G|---------------------|--2---2---2---2-----2----| 
D|--3----3----2----2---|--2---2---2---2-----2----| 
A|--3----3----2----2---|--0---0---0---0-----0----| 
E|--1----1----0----0---|-------------------------| 

  P.M.-----------------------------|   
e|-----------------------------------------------|-----------------2---------| 
B|-----------------------------------------------|-----------3h1---3---------| 
G|--------------------------------------0h1---0--|--2--2--2--2-----2---------| 
D|--3---3---3---3---3---3---2---2---2---2-----0--|--2--2--2--2---------------| 
A|--3---3---3---3---3---3---2---2---2---2--------|--0--0--0-----------3--2--0| 
E|--1---1---1---1---1---1---0---0---0------------|---------------------------| 

e|--------------|-------------------------|---------------|------------------| 
B|--------------|--1---1---1---3p1---0h1--|---------------|------------------| 
G|--------------|--2---2---2---2-----2----|--2------------|------------------| 
D|----3----2----|--2---2---2---2-----2----|--2------------|--2---------------| 
A|----3----2----|--0---0---0---0-----0----|--0------------|--2---------------| 
E|----1----0----|-------------------------|-------3b------|--0------3b-------| 
Solo 

e|--------------------------------------------------| 
B|--------------------------------------------------| 
G|------9-------7---9--------7---9---9---7-------7--| 
D|------9---7---7---9---9----7---9---9---7---9------| 
A|----------7-----------9--------------------9------| 
E|--0-----------------------------------------------| 

e|-------------------------------------------| 
B|-------------------------------------------| 
G|--9-------7---9-------7---9---9------------| 
D|--9---9---7---9---9---7---9---9------------| 
A|------9-----------9---------------------9--| 
E|----------------------------------7/9------| 

e|--------------------------------------------------| 
B|--------------------------------------------------| 
G|------9-------7---9--------7---9---9---7-------7--| 
D|------9---7---7---9---9----7---9---9---7---9------| 
A|----------7-----------9--------------------9------| 
E|--0-----------------------------------------------| 

e|-------------------------------------------| 
B|-------------------------------------------| 
G|--9-------7---9-------7---9---9------------| 
D|--9---9---7---9---9---7---9---9------------| 
A|------9-----------9---------------------9--| 
E|----------------------------------7/9------| 

e|--------------------------------------------------| 
B|--------------------------------------------------| 
G|------9-------7---9--------7---9---9---7-------7--| 
D|------9---7---7---9---9----7---9---9---7---9------| 
A|----------7-----------9--------------------9------| 
E|--0-----------------------------------------------| 

e|-------------------------------------------| 
B|-------------------------------------------| 
G|--9-------7---9-------7---9---9------------| 
D|--9---9---7---9---9---7---9---9------------| 
A|------9-----------9---------------------9--| 
E|----------------------------------7/9------| 

e|--------------------------------------------------| 
B|--------------------------------------------------| 
G|------9-------7---9--------7---9---9---7-------7--| 
D|------9---7---7---9---9----7---9---9---7---9------| 
A|----------7-----------9--------------------9------| 
E|--0-----------------------------------------------| 

e|-------------------------------------------| 
B|-------------------------------------------| 
G|--9-------7---9-------7---9---9------------| 
D|--9---9---7---9---9---7---9---9------------| 
A|------9-----------9---------------------9--| 
E|----------------------------------7/9------| 


(Clean Tone) 
e|-----0--0--0--0--0--0--0--|-----------------------|--2--2--2--2------------| 
B|-----0--0--0--0--0--0--0--|--1--1--1--1--1--1--1--|--3--3--3--3--3--3--3--3| 
G|-----0--0--0--0--0--0--0--|--2--2--2--2--2--2--2--|--2--2--2--2--0--0--0--0| 
D|-----2--2--2--2--0--0--0--|--2--2--2--2--2--2--2--|--0--0--0--0--2--2--2--2| 
A|-----2--2--2--2--2--2--2--|--0--0--0--0--0--0--0--|--------------3--3--3--3| 
E|--0--0--0--0--0--0--0--0--|-----------------------|------------------------| 

e|-----------------------|--0--0--0--0--0--0--0--|-----------------------| 
B|-----------------------|--0--0--0--0--0--0--0--|--1--1--1--1--1--1--1--| 
G|--4--4--4--4--4--4--4--|--0--0--0--0--0--0--0--|--2--2--2--2--2--2--2--| 
D|--4--4--4--4--4--4--4--|--2--2--2--2--0--0--0--|--2--2--2--2--2--2--2--| 
A|--2--2--2--2--2--2--2--|--2--2--2--2--2--2--2--|--0--0--0--0--0--0--0--| 
E|-----------------------|--0--0--0--0--0--0--0--|-----------------------| 

                           (Over Driven Tone) 
                           P.M.-----------------------------------| 
e|--2--2--2--2------------|-----------------------------------------------| 
B|--3--3--3--3--3--3--3--3|-----------------------------------------------| 
G|--2--2--2--2--0--0--0--0|--4--4--4--4--4--4--4--4--4--4--4--4--4--------| 
D|--0--0--0--0--2--2--2--2|--4--4--4--4--4--4--4--4--4--4--4--4--4--------| 
A|--------------3--3--3--3|--2--2--2--2--2--2--2--2--2--2--2--2--2----3b--| 
E|------------------------|-----------------------------------------------| 

4th Verse 

(Clean Tone) 

    Let Ring -----------------------------| 

e|-----------------------------------------| 
B|--------------0-------0---------------0--| 
G|----------0-------0-------0-------0------| 
D|------2-----------------------2----------| 
A|-----------------------------------------| 
E|--0--------------------------------------| 

    Let Ring -----------------------------| 

e|----------------------3---0--------------| 
B|--------0h1---3---1-----------3---1------| 
G|--0h2---------------------------------2--| 
D|--0h2------------------------------------| 
A|-----------------------------------------| 
E|-----------------------------------------| 

    Let Ring --------------------------------------| 
                                                   (Over Driven Tone)    
e|--------------2h3p2------------------------------|-----------------------| 
B|------3---------------3---3-----------3----------|------------5---5------| 
G|--2-------2---------------0-------0-------0------|-----4---4---4---4-----| 
D|--0-----------------------2---2---------------2--|-4---4---4---4---4-----| 
A|--------------------------3----------------------|-2---------------------| 
E|-------------------------------------------------|--------------------3b-| 

    Let Ring-------------------------------| 

   (Clean Tone) 
e|-----------------------------------------| 
B|--------------0-------0---------------0--| 
G|----------0-------0-------0-------0------| 
D|------2-----------------------2----------| 
A|-----------------------------------------| 
E|--0--------------------------------------| 

    Let Ring ------------------------------| 

e|----------------------3---0--------------| 
B|--------0h1---3---1-----------3---1------| 
G|--0h2---------------------------------2--| 
D|--0h2------------------------------------| 
A|-----------------------------------------| 
E|-----------------------------------------| 

    Let Ring -------------------------------------| 
                                                   (Over Driven Tone)    
e|--------------2h3p2------------------------------|-------------------------| 
B|------3---------------3---3-----------3----------|-------------------------| 
G|--2-------2---------------0-------0-------0------|--4--4--4--4---------7--9| 
D|--0-----------------------2---2---------------2--|--4--4--4--4---------7--9| 
A|--------------------------3----------------------|--2--2--2--2---7/9-------| 
E|-------------------------------------------------|---------------7/9-------| 

4th Chorus 

e|-----------------------|-----------------------| 
B|------8----------------|------2----------------| 
G|--9---7---------7---9--|--7---3---------7---9--| 
D|--9-------7/9---7---9--|--7-------7/9---7---9--| 
A|--7-------7/9----------|--5-------7/9----------| 
E|--0--------------------|-----------------------| 

e|-------------------------------------|-----------------------------| 
B|-------------------------------------|-----------------------------| 
G|--6---6---0---4---2---4---2---0---2--|--2-------2-------2---7---9--| 
D|--6---6---0---4---2---4---2---0---2--|--2-------2-------2---7---9--| 
A|--4---4---0---2---0---4---2---0---0--|--0-------0-------0---5---7--| 
E|-------------------------------------|------3-------3-----------0--| 

e|-------------------|-----------------------| 
B|--8----------------|------2----------------| 
G|--7---------7---9--|--7---3---------7---9--| 
D|------7/9---7---9--|--7-------7/9---7---9--| 
A|------7/9----------|--5-------7/9----------| 
E|-------------------|-----------------------| 

e|-------------------------------------|--------------------------| 
B|-------------------------------------|--------------------------| 
G|--6---6---0---4---2---4---2---0---2--|--2---2---2---2---2---7---| 
D|--6---6---0---4---2---4---2---0---2--|--2---2---2---2---2---7---| 
A|--4---4---0---2---0---4---2---0---0--|--0---0---0---0---0---5---| 
E|-------------------------------------|--------------------------| 

e|-----------------------|-----------------------| 
B|------8----------------|------2----------------| 
G|--9---7---------7---9--|--7---3---------7---9--| 
D|--9-------7/9---7---9--|--7-------7/9---7---9--| 
A|--7-------7/9----------|--5-------7/9----------| 
E|--0--------------------|-----------------------| 

e|-------------------------------------|--------------------------| 
B|-------------------------------------|--------------------------| 
G|--6---6---0---4---2---4---2---0---2--|--2---2---2---2---2---7---| 
D|--6---6---0---4---2---4---2---0---2--|--2---2---2---2---2---7---| 
A|--4---4---0---2---0---4---2---0---0--|--0---0---0---0---0---5---| 
E|-------------------------------------|--------------------------| 

e|-----------------------|-----------------------| 
B|------8----------------|------2----------------| 
G|--9---7---------7---9--|--7---3---------7---9--| 
D|--9-------7/9---7---9--|--7-------7/9---7---9--| 
A|--7-------7/9----------|--5-------7/9----------| 
E|--0--------------------|-----------------------| 

e|-------------------------------------|--------------------------| 
B|-------------------------------------|--------------------------| 
G|--6---6---0---4---2---4---2---0---2--|--2---2---2---2---2---7---| 
D|--6---6---0---4---2---4---2---0---2--|--2---2---2---2---2---7---| 
A|--4---4---0---2---0---4---2---0---0--|--0---0---0---0---0---5---| 
E|-------------------------------------|--------------------------| 

Outro 

e|-----------------------|---------------------------|-----------------| 
B|------8----------------|----------2----------------|-----------------| 
G|--9---7---------7---9--|--7h9p7---3---------7---9--|--6---6---0---4--| 
D|--9-------7/9---7---9--|--7h9p7-------7/9---7---9--|--6---6---0---4--| 
A|--7-------7/9----------|--------------7/9----------|--4---4---0---2--| 
E|--0--------------------|---------------------------|-----------------| 


e|-------------------------|----------------| 
B|-------------------------|----8------8----| 
G|--2---2---2---5---5---5--|----7------7----| 
D|--2---2---2---5---5---5--|----6------6----| 
A|--0---0---0---3---3---3--|----7------7----| 
E|-------------------------|----------------|  
		  

See also:

tabs Guns N' Roses - Don't Cry tabs Aerosmith - Dream On tabs Guns N' Roses - Sweet Child o' mine tabs Guns N' Roses - Welcome to The Jungle tabs Rage Against The Machine - Killing In The Name (ver. 2) tabs The Doors - People Are Strange
e-chords

Other versions:

tabs Blackfoot - Not Another Maker
auto scroll beats size up size down change color hide chords drawings
tab show chords e-chords YouTube Clip e-chords hide all tabs e-chords go to top tab

share with facebook