Blackfoot

Dream On

Blackfoot

tabs nolevel nolevel

by  FERNSANTANA

save to print version add songbook text version e-mail correct tuner
chordsukulelecavacokeyboardtabbassdrumsharmonicaflute Guitar Pro
close

there isn't a video lesson for this song

chords

Dream On

	  		

Guitar I (overdriven) 

Intro and first fill 
e|-----------|----------------------------------------|----------------| 
B|-----------|----------------------------------------|----------------| 
G|-----------|----------------------------------------|----------9---7-| 
D|------7/9--|--7---9p7------7---9---7---9p7-------7--|--9---9---9---7-| 
A|------7/9--|--7---9p7--9---7---9---7---9p7---9---7--|--9---9---7---5-| 
E|------5/7--|-----------9---------------------9------|----------------| 

e|-----------|----------------------------------------|----------------| 
B|-----------|----------------------------------------|----------------| 
G|-----------|----------------------------------------|----------9---7-| 
D|------7/9--|--7---9p7------7---9---7---9p7-------7--|--9---9---9---7-| 
A|------7/9--|--7---9p7--9---7---9---7---9p7---9---7--|--9---9---7---5-| 
E|------5/7--|-----------9---------------------9------|----------------| 

1st Verse 
e|-----------------------------------------------| 
B|-----------------------------------------------| 
G|-----------------------------------------------| 
D|--7/9---7---9p7-------7---9---7---9p7-------7--| 
A|--7/9---7---9p7---9---7---9---7---9p7---9---7--| 
E|--5/7-------------9---------------------9------| 

e|------------------------------------------|-----------------------| 
B|------------------------------------------|-----------------------| 
G|--9---9qbr---7----------------------------|-----------------------| 
D|--9---9qbr---7---9---7---9p7-------7---9--|--7---9p7-------9---7--| 
A|-----------------9---7---9p7---9---7---9--|--7---9p7---9---9---7--| 
E|-------------------------------9----------|------------9----------| 

e|-----------------------------------------------| 
B|-----------------------------------------------| 
G|-----------------------------------------------| 
D|--7/9---7---9p7-------7---9---7---9p7-------7--| 
A|--7/9---7---9p7---9---7---9---7---9p7---9---7--| 
E|--5/7-------------9---------------------9------| 

e|-----------------------------------------|--------------------------------| 
B|-----------------------------------------|--------------------------------| 
G|--9---9qbr---7---------------------------|--------------------------------| 
D|--9---9qbr---7---4--4--4--4--4--4--4--4--|--4--4--4--4--4--4--4--4--4--4--| 
A|-----------------4--4--4--4--4--4--4--4--|--4--4--4--4--4--4--4--4--4--4--| 
E|-----------------2--2--2--2--2--2--2--2--|--2--2--2--2--2--2--2--2--2--2--| 

2nd Verse 
e|-----------------------------------------------| 
B|-----------------------------------------------| 
G|-----------------------------------------------| 
D|--7/9---7---9p7-------7---9---7---9p7-------7--| 
A|--7/9---7---9p7---9---7---9---7---9p7---9---7--| 
E|--5/7-------------9---------------------9------| 

e|------------------------------------------|-----------------------| 
B|------------------------------------------|-----------------------| 
G|--9---9qbr---7----------------------------|-----------------------| 
D|--9---9qbr---7---9---7---9p7-------7---9--|--7---9p7-------9---7--| 
A|-----------------9---7---9p7---9---7---9--|--7---9p7---9---9---7--| 
E|-------------------------------9----------|------------9----------| 

e|-----------------------------------------------| 
B|-----------------------------------------------| 
G|-----------------------------------------------| 
D|--7/9---7---9p7-------7---9---7---9p7-------7--| 
A|--7/9---7---9p7---9---7---9---7---9p7---9---7--| 
E|--5/7-------------9---------------------9------| 

e|-----------------------------------|-------------------------------| 
B|-----------------------------------|-------------------------------| 
G|--9---9qbr---7---------------------|-------------------------------| 
D|--9---9qbr---7---4--4--4--4--4--4--|--4--4--4--4--4--4--4---5---2--| 
A|-----------------4--4--4--4--4--4--|--4--4--4--4--4--4--4---5---2--| 
E|-----------------2--2--2--2--2--2--|--2--2--2--2--2--2--2---3---0--| 

1st Chorus 
e|---------------------------------------------|----------------------| 
B|---------------------------------------------|----------------------| 
G|---------------------------------------------|------2br--(2)p0------| 
D|--2---2p0-------------2---2---2p0------------|--2----------------2--| 
A|--2---2p0-----------------2---2p0------------|----------------------| 
E|--0---------0---3h4-------0---------0---3h4--|----------------------| 

e|--------------------------------------------------| 
B|--------------------------------------------------| 
G|--------------------------------------------------| 
D|--2---2p0-------------2---2---2p0-------------2---| 
A|--2---2p0-----------------2---2p0-----------------| 
E|--0---------0---3h4-------0---------0---3h4-------| 

e|-----------------------------------------------| 
B|-----------------------------------------------| 
G|-----------------------------------------------| 
D|--7/9---7---9p7-------7---9---7---9p7-------7--| 
A|--7/9---7---9p7---9---7---9---7---9p7---9---7--| 
E|--5/7-------------9---------------------9------| 

e|------------------------------------------|-------------------------------| 
B|------------------------------------------|-------------------------------| 
G|--9---9qbr---7----------------------------|-------------------------------| 
D|--9---9qbr---7---9---7---9p7-------7---9--|--7---9p7-------9---7---2---4--| 
A|-----------------9---7---9p7---9---7---9--|--7---9p7---9---9---7---2---4--| 
E|-------------------------------9----------|------------9-----------0---2--| 

e|-----------------------------------------------| 
B|-----------------------------------------------| 
G|-----------------------------------------------| 
D|--4--4--4--4--4--4--4--4--4--4--4--4--4--4--4--| 
A|--4--4--4--4--4--4--4--4--4--4--4--4--4--4--4--| 
E|--2--2--2--2--2--2--2--2--2--2--2--2--2--2--2--| 

e|----------------------------------------------|-------------------------| 
B|----------------------------------------------|-------------------------| 
G|-------------------2---2---5p0-------------2--|--2---5p0-------------2--| 
D|--4--4--4--4---5---2---2---5p0----------------|--2---5p0----------------| 
A|--4--4--4--4---5---0---0---------0---2h3------|--0---------0---2h3------| 
E|--2--2--2--2---3------------------------------|-------------------------| 

2nd fill 
e|-----------|----------------------------------------|----------------| 
B|-----------|----------------------------------------|----------------| 
G|-----------|----------------------------------------|----------9---7-| 
D|------7/9--|--7---9p7------7---9---7---9p7-------7--|--9---9---9---7-| 
A|------7/9--|--7---9p7--9---7---9---7---9p7---9---7--|--9---9---7---5-| 
E|------5/7--|-----------9---------------------9------|----------------| 

3rd Verse 
e|-----------------------------------------------| 
B|-----------------------------------------------| 
G|-----------------------------------------------| 
D|--7/9---7---9p7-------7---9---7---9p7-------7--| 
A|--7/9---7---9p7---9---7---9---7---9p7---9---7--| 
E|--5/7-------------9---------------------9------| 

e|------------------------------------------|-----------------------| 
B|------------------------------------------|-----------------------| 
G|--9---9qbr---7----------------------------|-----------------------| 
D|--9---9qbr---7---9---7---9p7-------7---9--|--7---9p7-------9---7--| 
A|-----------------9---7---9p7---9---7---9--|--7---9p7---9---9---7--| 
E|-------------------------------9----------|------------9----------| 

e|-----------------------------------------------| 
B|-----------------------------------------------| 
G|-----------------------------------------------| 
D|--7/9---7---9p7-------7---9---7---9p7-------7--| 
A|--7/9---7---9p7---9---7---9---7---9p7---9---7--| 
E|--5/7-------------9---------------------9------| 

e|-----------------------------------------|-------------------------------| 
B|-----------------------------------------|-------------------------------| 
G|--9---9qbr---7---------------------------|-------------------------------| 
D|--9---9qbr---7---4--4--4--4--4--4--4--4--|--4--4--4--4--4--4--4---5---2--| 
A|-----------------4--4--4--4--4--4--4--4--|--4--4--4--4--4--4--4---5---2--| 
E|-----------------2--2--2--2--2--2--2--2--|--2--2--2--2--2--2--2---3---0--| 

2nd Chorus 
e|---------------------------------------------|----------------------| 
B|---------------------------------------------|----------------------| 
G|---------------------------------------------|------2br--(2)p0------| 
D|--2---2p0-------------2---2---2p0------------|--2----------------2--| 
A|--2---2p0-----------------2---2p0------------|----------------------| 
E|--0---------0---3h4-------0---------0---3h4--|----------------------| 

e|--------------------------------------------------| 
B|--------------------------------------------------| 
G|--------------------------------------------------| 
D|--2---2p0-------------2---2---2p0-------------2---| 
A|--2---2p0-----------------2---2p0-----------------| 
E|--0---------0---3h4-------0---------0---3h4-------| 

e|-----------------------------------------------| 
B|-----------------------------------------------| 
G|-----------------------------------------------| 
D|--7/9---7---9p7-------7---9---7---9p7-------7--| 
A|--7/9---7---9p7---9---7---9---7---9p7---9---7--| 
E|--5/7-------------9---------------------9------| 

e|------------------------------------------|-------------------------------| 
B|------------------------------------------|-------------------------------| 
G|--9---9qbr---7----------------------------|-------------------------------| 
D|--9---9qbr---7---9---7---9p7-------7---9--|--7---9p7-------9---7---2---4--| 
A|-----------------9---7---9p7---9---7---9--|--7---9p7---9---9---7---2---4--| 
E|-------------------------------9----------|------------9-----------0---2--| 

e|-----------------------------------------------| 
B|-----------------------------------------------| 
G|-----------------------------------------------| 
D|--4--4--4--4--4--4--4--4--4--4--4--4--4--4--4--| 
A|--4--4--4--4--4--4--4--4--4--4--4--4--4--4--4--| 
E|--2--2--2--2--2--2--2--2--2--2--2--2--2--2--2--| 

e|----------------------------------------------|-------------------------| 
B|----------------------------------------------|-------------------------| 
G|-------------------2---2---5p0-------------2--|--2---5p0-------------2--| 
D|--4--4--4--4---5---2---2---5p0----------------|--2---5p0----------------| 
A|--4--4--4--4---5---0---0---------0---2h3------|--0---------0---2h3------| 
E|--2--2--2--2---3------------------------------|-------------------------| 

                                                         
Main Solo (Clean Tone) 

 Let all notes ring 
e|----------2----------------|--2-----------------4----------| 
B|--------------2------------|------2-----------------4------| 
G|--2---4-----------4-----4--|----------4-----6-----------6--| 
D|--2---4-----------------4--|----------------6--------------| 
A|--0---2---------------0h2--|--------------0h4--------------| 
E|---------------------------|-------------------------------| 

e|--------4----------------|--2-----------------2----------| 
B|------------4------------|------2-----------------4------| 
G|----6-----------6-----4--|----------4-----4-----------4--| 
D|----6-----------------4--|----------------4--------------| 
A|--0h4---------------0h2--|--------------0h2--------------| 
E|-------------------------|-------------------------------| 

e|------4----------|--------4----------------|--2-----------------2----------| 
B|----------4------|------------4------------|------2-----------------4------| 
G|----6---------6--|----6-----------6-----4--|----------4-----4-----------4--| 
D|----6------------|----6-----------------4--|----------------4--------------| 
A|--0h4------------|--0h4---------------0h2--|--------------0h2--------------| 
E|-----------------|-------------------------|-------------------------------| 

e|------4----------|--------4----------------|--2-----------------2----------| 
B|----------4------|------------4------------|------2-----------------4------| 
G|----6---------6--|----6-----------6-----4--|----------4-----4-----------4--| 
D|----6------------|----6-----------------4--|----------------4--------------| 
A|--0h4------------|--0h4---------------0h2--|--------------0h2--------------| 
E|-----------------|-------------------------|-------------------------------| 

e|------4----------|--------4----------------|--2-----------------2----------| 
B|----------4------|------------4------------|------2-----------------4------| 
G|----6---------6--|----6-----------6-----4--|----------4-----4-----------4--| 
D|----6------------|----6-----------------4--|----------------4--------------| 
A|--0h4------------|--0h4---------------0h2--|--------------0h2--------------| 
E|-----------------|-------------------------|-------------------------------| 

e|------4----------|--------4----------------|--2-----------------2----------| 
B|----------4------|------------4------------|------2-----------------4------| 
G|----6---------6--|----6-----------6-----4--|----------4-----4-----------4--| 
D|----6------------|----6-----------------4--|----------------4--------------| 
A|--0h4------------|--0h4---------------0h2--|--------------0h2--------------| 
E|-----------------|-------------------------|-------------------------------| 

e|------4----------|--------4----------------|--2-----------------2----------| 
B|----------4------|------------4------------|------2-----------------4------| 
G|----6---------6--|----6-----------6-----4--|----------4-----4-----------4--| 
D|----6------------|----6-----------------4--|----------------4--------------| 
A|--0h4------------|--0h4---------------0h2--|--------------0h2--------------| 
E|-----------------|-------------------------|-------------------------------| 

e|------4----------|--------4----------------|--2-----------------2----------| 
B|----------4------|------------4------------|------2-----------------4------| 
G|----6---------6--|----6-----------6-----4--|----------4-----4-----------4--| 
D|----6------------|----6-----------------4--|----------------4--------------| 
A|--0h4------------|--0h4---------------0h2--|--------------0h2--------------| 
E|-----------------|-------------------------|-------------------------------| 

e|------4----------|--------------------| 
B|----------4------|--------------------| 
G|----6---------6--|--7---7-----9---9---| 
D|----6------------|--7---7-----9---9---| 
A|--0h4------------|--5---5-----7---7---| 
E|-----------------|--------------------| 

3rd fill (over driven) 
e|-----------|----------------------------------------|----------------| 
B|-----------|----------------------------------------|----------------| 
G|-----------|----------------------------------------|----------9---7-| 
D|------7/9--|--7---9p7------7---9---7---9p7-------7--|--9---9---9---7-| 
A|------7/9--|--7---9p7--9---7---9---7---9p7---9---7--|--9---9---7---5-| 
E|------5/7--|-----------9---------------------9------|----------------| 

4th Verse 
e|-----------------------------------------------| 
B|-----------------------------------------------| 
G|-----------------------------------------------| 
D|--7/9---7---9p7-------7---9---7---9p7-------7--| 
A|--7/9---7---9p7---9---7---9---7---9p7---9---7--| 
E|--5/7-------------9---------------------9------| 

e|------------------------------------------|-----------------------| 
B|------------------------------------------|-----------------------| 
G|--9---9qbr---7----------------------------|-----------------------| 
D|--9---9qbr---7---9---7---9p7-------7---9--|--7---9p7-------9---7--| 
A|-----------------9---7---9p7---9---7---9--|--7---9p7---9---9---7--| 
E|-------------------------------9----------|------------9----------| 

e|-----------------------------------------------| 
B|-----------------------------------------------| 
G|-----------------------------------------------| 
D|--7/9---7---9p7-------7---9---7---9p7-------7--| 
A|--7/9---7---9p7---9---7---9---7---9p7---9---7--| 
E|--5/7-------------9---------------------9------| 

e|-----------------------------------------|-------------------------------| 
B|-----------------------------------------|-------------------------------| 
G|--9---9qbr---7---------------------------|-------------------------------| 
D|--9---9qbr---7---4--4--4--4--4--4--4--4--|--4--4--4--4--4--4--4---5---2--| 
A|-----------------4--4--4--4--4--4--4--4--|--4--4--4--4--4--4--4---5---2--| 
E|-----------------2--2--2--2--2--2--2--2--|--2--2--2--2--2--2--2---3---0--| 

3rd Chorus 
e|---------------------------------------------|----------------------| 
B|---------------------------------------------|----------------------| 
G|---------------------------------------------|------2br--(2)p0------| 
D|--2---2p0-------------2---2---2p0------------|--2----------------2--| 
A|--2---2p0-----------------2---2p0------------|----------------------| 
E|--0---------0---3h4-------0---------0---3h4--|----------------------| 

e|--------------------------------------------------| 
B|--------------------------------------------------| 
G|--------------------------------------------------| 
D|--2---2p0-------------2---2---2p0-------------2---| 
A|--2---2p0-----------------2---2p0-----------------| 
E|--0---------0---3h4-------0---------0---3h4-------| 

e|-----------------------------------------------| 
B|-----------------------------------------------| 
G|-----------------------------------------------| 
D|--7/9---7---9p7-------7---9---7---9p7-------7--| 
A|--7/9---7---9p7---9---7---9---7---9p7---9---7--| 
E|--5/7-------------9---------------------9------| 

e|------------------------------------------|-------------------------------| 
B|------------------------------------------|-------------------------------| 
G|--9---9qbr---7----------------------------|-------------------------------| 
D|--9---9qbr---7---9---7---9p7-------7---9--|--7---9p7-------9---7-------4--| 
A|-----------------9---7---9p7---9---7---9--|--7---9p7---9---9---7---2---4--| 
E|-------------------------------9----------|------------9-----------0---2--| 

e|-----------------------------------------------| 
B|-----------------------------------------------| 
G|-----------------------------------------------| 
D|--4--4--4--4--4--4--4--4--4--4--4--4--4--4--4--| 
A|--4--4--4--4--4--4--4--4--4--4--4--4--4--4--4--| 
E|--2--2--2--2--2--2--2--2--2--2--2--2--2--2--2--| 

e|----------------------------------------------|-------------------------| 
B|----------------------------------------------|-------------------------| 
G|-------------------2---2---5p0-------------2--|--2---5p0-------------2--| 
D|--4--4--4--4---5---2---2---5p0----------------|--2---5p0----------------| 
A|--4--4--4--4---5---0---0---------0---2h3------|--0---------0---2h3------| 
E|--2--2--2--2---3------------------------------|-------------------------| 

Outro (rhythm clean/ solo over driven) 

Let rhythm notes ring  
e|----------2----------------|--2-----------------4----------| 
B|--------------2------------|------2-----------------4------| 
G|--2---4-----------4-----4--|----------4-----6-----------6--| 
D|--2---4-----------------4--|----------------6--------------| 
A|--0---2---------------0h2--|--------------0h4--------------| 
E|---------------------------|-------------------------------| 

e|--------4----------------|--2-----------------2----------| 
B|------------4------------|------2-----------------4------| 
G|----6-----------6-----4--|----------4-----4-----------4--| 
D|----6-----------------4--|----------------4--------------| 
A|--0h4---------------0h2--|--------------0h2--------------| 
E|-------------------------|-------------------------------| 

e|--------7-----------------7----------|--------7-----------------7----------| 
B|------------7-----------------7------|------------7-----------------7------| 
G|----9-----------9-----9-----------9--|----9-----------9-----9-----------9--| 
D|----9-----------------9--------------|----9-----------------9--------------| 
A|--0h7---------------0h7--------------|--0h7---------------0h7--------------| 
E|-------------------------------------|-------------------------------------| 

e|--------------------10--12b--|--12pb--12pbr--10------12--|--14br--14b--14b-| 
B|-----12--10--12~~~-----------|-------------------14------|-----------------| 
G|--9--------------------------|---------------------------|-----------------| 
D|-----------------------------|---------------------------|-----------------| 
A|-----------------------------|---------------------------|-----------------| 
E|-----------------------------|---------------------------|-----------------| 

e|--------4-----------------4----------|--------7-----------------7----------| 
B|------------4-----------------4------|------------7-----------------7------| 
G|----4-----------2-----4-----------2--|----9-----------9-----9-----------9--| 
D|----4-----------------4--------------|----9-----------------9--------------| 
A|--0h2---------------0h2--------------|--0h7---------------0h7--------------| 
E|-------------------------------------|-------------------------------------| 

e|--------------|--10b--10pbr--7-------7-------------|----------------10-----| 
B|--10p7-----7--|-----------------10b-----10------7--|--------------------10-| 
G|--------9-----|-----------------------------9b-----|--9--7-----11b---------| 
D|--------------|------------------------------------|--------9--------------| 
A|--------------|------------------------------------|-----------------------| 
E|--------------|------------------------------------|-----------------------| 

e|-12b--12br--10-----------14b--|--------4-----------------4----------| 
B|------------------------------|------------4-----------------4------| 
G|----------------11br--9-------|----4-----------2-----4-----------2--| 
D|------------------------------|----4-----------------4--------------| 
A|------------------------------|--0h2---------------0h2--------------| 
E|------------------------------|-------------------------------------| 

e|--------7-----------------7----------|-----------------------| 
B|------------7-----------------7------|--15br--15p12------12--| 
G|----9-----------9-----9-----------9--|---------------14------| 
D|----9-----------------9--------------|-----------------------| 
A|--0h7---------------0h7--------------|-----------------------| 
E|-------------------------------------|-----------------------| 

e|----------------------------|-----------9---------------------| 
B|--12--15--16--17--18--17br--|--------------12b--12--12--12p9--| 
G|----------------------------|--16--/10------------------------| 
D|----------------------------|---------------------------------| 
A|----------------------------|---------------------------------| 
E|----------------------------|---------------------------------| 

e|--------------------------------------------|--------4----------| 
B|--------------------------------------------|------------4------| 
G|--11--9--11p9------11p9------11br--9--------|----4-----------2--| 
D|---------------11--------11-----------11-9--|----4--------------| 
A|--------------------------------------------|--0h2--------------| 
E|--------------------------------------------|-------------------| 

e|--------7-----------------7----------|---------7------------| 
B|------------7-----------------7------|------7-----10b--10b--| 
G|----9-----------9-----9-----------9--|--9b------------------| 
D|----9-----------------9--------------|----------------------| 
A|--0h7---------------0h7--------------|----------------------| 
E|-------------------------------------|----------------------| 

e|--------------9------7----------7--------------|---------------9-----12b--| 
B|--10pb--10pb-----10-----7--10b-----7--10p7-----|------------------9-------| 
G|--------------------------------------------9--|--9p7-----11b-------------| 
D|-----------------------------------------------|-------9------------------| 
A|-----------------------------------------------|--------------------------| 
E|-----------------------------------------------|--------------------------| 

e|--12b--12b--12b--12pbr--14b--14b--14pbr--12--14--|----------------2--------| 
B|-------------------------------------------------|--2-----------------2----| 
G|-------------------------------------------------|------4-----4-----------4| 
D|-------------------------------------------------|------------4------------| 
A|-------------------------------------------------|----------0h2------------| 
E|-------------------------------------------------|-------------------------| 

e|-------4-----------------4----------|-------------17-------------17-------| 
B|-----------4-----------------4------|--17b--17pb------17b--17pb------17b--| 
G|---6-----------6-----6-----------6--|-------------------------------------| 
D|---6-----------------6--------------|-------------------------------------| 
A|-0h4---------------0h4--------------|-------------------------------------| 
E|------------------------------------|-------------------------------------| 

e|--------17----------------| 
B|--17pb------17b--17b--18--| 
G|--------------------------| 
D|--------------------------| 
A|--------------------------| 
E|--------------------------| 

Guitar II (Over Driven second fill clean) 
                                                            
                                                      P.H ------------| 
e|----------------|---------------|-----------------|------------------| 
B|----------------|---------------|-----------------|------------------| 
G|----------------|---------------|--9---7---7/9\7--|--9br--7--9p7-----| 
D|----------------|---------------|--9---7---7/9\7--|---------------9--| 
A|----------------|---------------|--7---5----------|------------------| 
E|----------------|---------------|-----------------|------------------| 

e|----------------------------------------|-------------------------| 
B|----------------------------------------|-------------------------| 
G|----------------------------------------|----------9---7---7/9\7--| 
D|--7---9p7------7---9---7---9p7-------7--|--9---9---9---7---7/9\7--| 
A|--7---9p7--9---7---9---7---9p7---9---7--|--9---9---7---5----------| 
E|-----------9---------------------9------|-------------------------| 

e|---------------10/12\10----| 
B|--10/12\10-----10/12\10----| 
G|---9/11\9------------------| 
D|---------------------------| 
A|---------------------------| 
E|---------------------------| 

1st Verse (Over driven) 
e|-----------------------------------------| 
B|-----------------------------------------| 
G|-----------------------------------------| 
D|--7---9p7-------7---9---7---9p7-------7--| 
A|--7---9p7---9---7---9---7---9p7---9---7--| 
E|------------9---------------------9------| 

e|------------------------------------------|-----------------------| 
B|------------------------------------------|-----------------------| 
G|--9---9qbr---7----------------------------|-----------------------| 
D|--9---9qbr---7---9---7---9p7-------7---9--|--7---9p7-------9---7--| 
A|-----------------9---7---9p7---9---7---9--|--7---9p7---9---9---7--| 
E|-------------------------------9----------|------------9----------| 

e|-----------------------------------------------| 
B|-----------------------------------------------| 
G|-----------------------------------------------| 
D|--7/9---7---9p7-------7---9---7---9p7-------7--| 
A|--7/9---7---9p7---9---7---9---7---9p7---9---7--| 
E|--5/7-------------9---------------------9------| 

e|-----------------------------------------|--------------------------------| 
B|-----------------------------------------|--------------------------------| 
G|--9---9qbr---7---------------------------|--------------------------------| 
D|--9---9qbr---7---4--4--4--4--4--4--4--4--|--4--4--4--4--4--4--4--4--4--4--| 
A|-----------------4--4--4--4--4--4--4--4--|--4--4--4--4--4--4--4--4--4--4--| 
E|-----------------2--2--2--2--2--2--2--2--|--2--2--2--2--2--2--2--2--2--2--| 

2nd Verse 
e|-----------------------------------------------| 
B|-----------------------------------------------| 
G|-----------------------------------------------| 
D|--7/9---7---9p7-------7---9---7---9p7-------7--| 
A|--7/9---7---9p7---9---7---9---7---9p7---9---7--| 
E|--5/7-------------9---------------------9------| 

e|------------------------------------------|-----------------------| 
B|------------------------------------------|-----------------------| 
G|--9---9qbr---7----------------------------|-----------------------| 
D|--9---9qbr---7---9---7---9p7-------7---9--|--7---9p7-------9---7--| 
A|-----------------9---7---9p7---9---7---9--|--7---9p7---9---9---7--| 
E|-------------------------------9----------|------------9----------| 

e|-----------------------------------------------| 
B|-----------------------------------------------| 
G|-----------------------------------------------| 
D|--7/9---7---9p7-------7---9---7---9p7-------7--| 
A|--7/9---7---9p7---9---7---9---7---9p7---9---7--| 
E|--5/7-------------9---------------------9------| 

e|-----------------------------------|-------------------------------| 
B|-----------------------------------|-------------------------------| 
G|--9---9qbr---7---------------------|-------------------------------| 
D|--9---9qbr---7---4--4--4--4--4--4--|--4--4--4--4--4--4--4---5---2--| 
A|-----------------4--4--4--4--4--4--|--4--4--4--4--4--4--4---5---2--| 
E|-----------------2--2--2--2--2--2--|--2--2--2--2--2--2--2---3---0--| 

1st Chorus 
e|---------------------------------------------|----------------------| 
B|---------------------------------------------|----------------------| 
G|---------------------------------------------|------2br--(2)p0------| 
D|--2---2p0-------------2---2---2p0------------|--2----------------2--| 
A|--2---2p0-----------------2---2p0------------|----------------------| 
E|--0---------0---3h4-------0---------0---3h4--|----------------------| 

e|--------------------------------------------------| 
B|--------------------------------------------------| 
G|--------------------------------------------------| 
D|--2---2p0-------------2---2---2p0-------------2---| 
A|--2---2p0-----------------2---2p0-----------------| 
E|--0---------0---3h4-------0---------0---3h4-------| 

e|-----------------------------------------------| 
B|-----------------------------------------------| 
G|-----------------------------------------------| 
D|--7/9---7---9p7-------7---9---7---9p7-------7--| 
A|--7/9---7---9p7---9---7---9---7---9p7---9---7--| 
E|--5/7-------------9---------------------9------| 

e|------------------------------------------|-------------------------------| 
B|------------------------------------------|-------------------------------| 
G|--9---9qbr---7----------------------------|-------------------------------| 
D|--9---9qbr---7---9---7---9p7-------7---9--|--7---9p7-------9---7---2---4--| 
A|-----------------9---7---9p7---9---7---9--|--7---9p7---9---9---7---2---4--| 
E|-------------------------------9----------|------------9-----------0---2--| 

e|-----------------------------------------------| 
B|-----------------------------------------------| 
G|-----------------------------------------------| 
D|--4--4--4--4--4--4--4--4--4--4--4--4--4--4--4--| 
A|--4--4--4--4--4--4--4--4--4--4--4--4--4--4--4--| 
E|--2--2--2--2--2--2--2--2--2--2--2--2--2--2--2--| 

e|----------------------------------------------|-------------------------| 
B|----------------------------------------------|-------------------------| 
G|-------------------2---2---5p0-------------2--|--2---5p0-------------2--| 
D|--4--4--4--4---5---2---2---5p0----------------|--2---5p0-------------2--| 
A|--4--4--4--4---5---0---0---------0---2h3------|--0---------0---2h3---0--| 
E|--2--2--2--2---3------------------------------|-------------------------| 

2nd fill 
e|-----------|----------------------------------------|--------------| 
B|-----------|----------------------------------------|--------------| 
G|-----------|----------------------------------------|-----9----7---| 
D|------7/9--|--7---9p7------7---9---7---9p7-------7--|-----9----7---| 
A|------7/9--|--7---9p7--9---7---9---7---9p7---9---7--|-----7----5---| 
E|------5/7--|-----------9---------------------9------|--------------| 

  P.H.-------------| 
e|----------------------------------------------| 
B|--10br----------------------------------------| 
G|--------7--9br--7--9p7------------------------| 
D|------------------------9--9p7----------------| 
A|--------------------------------9--9p\7p5-----| 
E|-------------------------------------------7--| 

3rd Verse 
e|-----------------------------------------| 
B|-----------------------------------------| 
G|-----------------------------------------| 
D|--7---9p7-------7---9---7---9p7-------7--| 
A|--7---9p7---9---7---9---7---9p7---9---7--| 
E|------------9---------------------9------| 

e|------------------------------------------|-----------------------| 
B|------------------------------------------|-----------------------| 
G|--9---9qbr---7----------------------------|-----------------------| 
D|--9---9qbr---7---9---7---9p7-------7---9--|--7---9p7-------9---7--| 
A|-----------------9---7---9p7---9---7---9--|--7---9p7---9---9---7--| 
E|-------------------------------9----------|------------9----------| 

e|-----------------------------------------------| 
B|-----------------------------------------------| 
G|-----------------------------------------------| 
D|--7/9---7---9p7-------7---9---7---9p7-------7--| 
A|--7/9---7---9p7---9---7---9---7---9p7---9---7--| 
E|--5/7-------------9---------------------9------| 

e|-----------------------------------------|--------------------------------| 
B|-----------------------------------------|--------------------------------| 
G|--9---9qbr---7---------------------------|--------------------------------| 
D|--9---9qbr---7---4--4--4--4--4--4--4--4--|--4--4--4--4--4--4--4--4--4--4--| 
A|-----------------4--4--4--4--4--4--4--4--|--4--4--4--4--4--4--4--4--4--4--| 
E|-----------------2--2--2--2--2--2--2--2--|--2--2--2--2--2--2--2--2--2--2--| 

2nd Chorus 
e|----------------------------------------------------|----------------------| 
B|----------------------------------------------------|----------------------| 
G|----------------------------------------------------|------2br--(2)p0------| 
D|--5---2--2---2p0-------------2---2---2p0------------|--2----------------2--| 
A|--5---2--2---2p0-----------------2---2p0------------|----------------------| 
E|--3---0--0---------0---3h4-------0---------0---3h4--|----------------------| 

e|--------------------------------------------------| 
B|--------------------------------------------------| 
G|--------------------------------------------------| 
D|--2---2p0-------------2---2---2p0-------------2---| 
A|--2---2p0-----------------2---2p0-----------------| 
E|--0---------0---3h4-------0---------0---3h4-------| 

e|-----------------------------------------------| 
B|-----------------------------------------------| 
G|-----------------------------------------------| 
D|--7/9---7---9p7-------7---9---7---9p7-------7--| 
A|--7/9---7---9p7---9---7---9---7---9p7---9---7--| 
E|--5/7-------------9---------------------9------| 

e|------------------------------------------|-------------------------------| 
B|------------------------------------------|-------------------------------| 
G|--9---9qbr---7----------------------------|-------------------------------| 
D|--9---9qbr---7---9---7---9p7-------7---9--|--7---9p7-------9---7-------4--| 
A|-----------------9---7---9p7---9---7---9--|--7---9p7---9---9---7---2---4--| 
E|-------------------------------9----------|------------9-----------0---2--| 

e|-----------------------------------------------| 
B|-----------------------------------------------| 
G|-----------------------------------------------| 
D|--4--4--4--4--4--4--4--4--4--4--4--4--4--4--4--| 
A|--4--4--4--4--4--4--4--4--4--4--4--4--4--4--4--| 
E|--2--2--2--2--2--2--2--2--2--2--2--2--2--2--2--| 

e|----------------------------------------------|-------------------------| 
B|----------------------------------------------|-------------------------| 
G|-------------------2---2---5p0-------------2--|--2---5p0-------------2--| 
D|--4--4--4--4---5---2---2---5p0----------------|--2---5p0----------------| 
A|--4--4--4--4---5---0---0---------0---2h3------|--0---------0---2h3------| 
E|--2--2--2--2---3------------------------------|-------------------------| 

Main Solo                                                
e|--------------|------------------|---------------------------| 
B|--------------|------------------|--12br--12-----------------| 
G|--------------|---------------9--|--11-----9-----------------| 
D|--7/9---------|--7/9---9/11---9--|------------11-------7--9--| 
A|--7/9---------|--7/9---9/11------|----------------6/9--------| 
E|--------------|------------------|---------------------------| 
                                             L.R. 
e|-------------------------------------|---------------|---------------| 
B|--------------10---10-----10-10--10--|---------------|--12-----------| 
G|-----7--9--7---9b---9pbr---7h9----7--|---------------|--11br--9------| 
D|--9----------------------------------|--9--------11--|-----------11--| 
A|-------------------------------------|-----9/11------|---------------| 
E|-------------------------------------|---------------|---------------| 

e|--------------------7------------|---------------------------| 
B|--10br-----------------7---------|---------------------------| 
G|---9----7-----10hb--------10--9--|--7------11--10--9---------| 
D|-----------9---------------------|-----9--------------11-----| 
A|---------------------------------|------------------------9--| 
E|---------------------------------|---------------------------| 

                                   P.h --------------------------| 
e|--------------------------------------|---------------------------| 
B|--------------------------------------|---------------------------| 
G|----------------9qb------------7--9b--|--9b--9b--9b--9b--9b--9br--| 
D|-------------9-------11--7--9---------|---------------------------| 
A|------9--11---------------------------|---------------------------| 
E|--12----------------------------------|---------------------------| 

  
                                                                         P. 
e|-----------------9--12b--12pbr~~~--9---------|-----------------------------| 
B|--------------9-----------------------12--9--|-----------------------------| 
G|--7------11b---------------------------------|-11br--9--11p9------11-----9~| 
D|-----9---------------------------------------|----------------11------11---| 
A|---------------------------------------------|-----------------------------| 
E|---------------------------------------------|-----------------------------| 

e|-----------------------------|----------9------------------------------| 
B|--10--10--10-----------------|-------------9--12b--12b--12pbr--9-------| 
G|--9b--9b--9br--7h9-----9-----|--7--11b----------------------------11b--| 
D|--------------------9-----9--|-----------------------------------------| 
A|-----------------------------|-----------------------------------------| 
E|-----------------------------|-----------------------------------------| 

    T 
e|----------------------|-----------------------------| 
B|----------------------|-----------------------7-----| 
G|-16--11pb--11--9------|--9--7--------9--7--------9--| 
D|------------------11--|--------9--9--------9--------| 
A|----------------------|-----------------------------| 
E|----------------------|-----------------------------| 

e|-------------------------------------------|-------------------------------| 
B|-----10b--12b--9--12------9----------------|-------------------------------| 
G|--7-------------------11-----9--11------9--|-------------------------------| 
D|------------------------------------11-----|--9--11------9-----------------| 
A|-------------------------------------------|---------11-----9\7--9--7------| 
E|-------------------------------------------|---------------------------9--9| 

e|----------------------------------------------------------| 
B|--10/12-12-12-12-12-12-12-12-12-12\10-10-10\7-7-----------| 
G|---9/11-11-11-11-11-11-11-11-11-11\9---9--9\6-6--9-----7--| 
D|----------------------------------------------------9-----| 
A|----------------------------------------------------------| 
E|----------------------------------------------------------| 

e|----------------------------------------------------------| 
B|--12/14-14-14-14-14-14\12-12-12\9-9-----------------------| 
G|--11/13-13-13-13-13-13\11-11-11\8-8--11p9------11------9--| 
D|-------------------------------------------11------11-----| 
A|----------------------------------------------------------| 
E|----------------------------------------------------------| 

e|---------------------|----------------9------------| 
B|---------------------|-------------9-----12b--12b--| 
G|--9--7-----9--7--9b--|--7-----11b------------------| 
D|--------9------------|-----9-----------------------| 
A|---------------------|-----------------------------| 
E|---------------------|-----------------------------| 

e|----------9-------------------12------------| 
B|-------9-----14hb---------12------15b--17b--| 
G|--11b----------------14b--------------------| 
D|--------------------------------------------| 
A|--------------------------------------------| 
E|--------------------------------------------| 

3rd fill (clean tone) 
e|-------7-------------------|----------------------------| 
B|----------7--10--9--7------|----------------------------| 
G|--6/8------------------10--|--9--7--9--7--6--7p6--------| 
D|---------------------------|----------------------7--9--| 
A|---------------------------|----------------------------| 
E|---------------------------|----------------------------| 

3rd Verse 
e|-----------------------------------------| 
B|-----------------------------------------| 
G|-----------------------------------------| 
D|--7---9p7-------7---9---7---9p7-------7--| 
A|--7---9p7---9---7---9---7---9p7---9---7--| 
E|------------9---------------------9------| 

e|------------------------------------------|-----------------------| 
B|------------------------------------------|-----------------------| 
G|--9---9qbr---7----------------------------|-----------------------| 
D|--9---9qbr---7---9---7---9p7-------7---9--|--7---9p7-------9---7--| 
A|-----------------9---7---9p7---9---7---9--|--7---9p7---9---9---7--| 
E|-------------------------------9----------|------------9----------| 

e|-----------------------------------------------| 
B|-----------------------------------------------| 
G|-----------------------------------------------| 
D|--7/9---7---9p7-------7---9---7---9p7-------7--| 
A|--7/9---7---9p7---9---7---9---7---9p7---9---7--| 
E|--5/7-------------9---------------------9------| 

e|-----------------------------------------|--------------------------------| 
B|-----------------------------------------|--------------------------------| 
G|--9---9qbr---7---------------------------|--------------------------------| 
D|--9---9qbr---7---4--4--4--4--4--4--4--4--|--4--4--4--4--4--4--4--4--4--4--| 
A|-----------------4--4--4--4--4--4--4--4--|--4--4--4--4--4--4--4--4--4--4--| 
E|-----------------2--2--2--2--2--2--2--2--|--2--2--2--2--2--2--2--2--2--2--| 

2nd Chorus 
e|----------------------------------------------------|----------------------| 
B|----------------------------------------------------|----------------------| 
G|----------------------------------------------------|------2br--(2)p0------| 
D|--5---2--2---2p0-------------2---2---2p0------------|--2----------------2--| 
A|--5---2--2---2p0-----------------2---2p0------------|----------------------| 
E|--3---0--0---------0---3h4-------0---------0---3h4--|----------------------| 

e|--------------------------------------------------| 
B|--------------------------------------------------| 
G|--------------------------------------------------| 
D|--2---2p0-------------2---2---2p0-------------2---| 
A|--2---2p0-----------------2---2p0-----------------| 
E|--0---------0---3h4-------0---------0---3h4-------| 

e|-----------------------------------------------| 
B|-----------------------------------------------| 
G|-----------------------------------------------| 
D|--7/9---7---9p7-------7---9---7---9p7-------7--| 
A|--7/9---7---9p7---9---7---9---7---9p7---9---7--| 
E|--5/7-------------9---------------------9------| 

e|------------------------------------------|-------------------------------| 
B|------------------------------------------|-------------------------------| 
G|--9---9qbr---7----------------------------|-------------------------------| 
D|--9---9qbr---7---9---7---9p7-------7---9--|--7---9p7-------9---7-------4--| 
A|-----------------9---7---9p7---9---7---9--|--7---9p7---9---9---7---2---4--| 
E|-------------------------------9----------|------------9-----------0---2--| 

e|-----------------------------------------------| 
B|-----------------------------------------------| 
G|-----------------------------------------------| 
D|--4--4--4--4--4--4--4--4--4--4--4--4--4--4--4--| 
A|--4--4--4--4--4--4--4--4--4--4--4--4--4--4--4--| 
E|--2--2--2--2--2--2--2--2--2--2--2--2--2--2--2--| 

e|----------------------------------------------|-------------------------| 
B|----------------------------------------------|-------------------------| 
G|-------------------2---2---5p0-------------2--|--2---5p0-------------2--| 
D|--4--4--4--4---5---2---2---5p0-------------2--|--2---5p0----------------| 
A|--4--4--4--4---5---0---0---------0---2h3---0--|--0---------0---2h3------| 
E|--2--2--2--2---3------------------------------|-------------------------| 

Outro 
         L.R.---|   Ph.--------|  
e|-------2------------------------|-------------------------------------| 
B|----------2---------------------|-------------------------------------| 
G|-------------4----7--7--9p7-----|------9--11--9-----------------------| 
D|--7/9------------------------9--|--11------------11--9--11-9-------9--| 
A|--7/9---------------------------|-----------------------------7/9-----| 
E|--------------------------------|-------------------------------------| 

       P.h                                                     P.h. 
e|------------------|------------12----------------------------------| 
B|------------------|----------------12--15b--15pbr--12--------------| 
G|--7--9b--7-----7--|--9--10/13--------------------------14b--14pbr--| 
D|------------9-----|------------------------------------------------| 
A|------------------|------------------------------------------------| 
E|------------------|------------------------------------------------| 

                  P.h.   Let all notes ring 
e|---------------------|--2-------------2--------|-------4-------------4-----| 
B|---------------------|-----2-------------2-----|----------4-------------4--| 
G|--12--14p12------12--|--------4----4--------4--|----6--------6----6-------6| 
D|-------------14------|-------------4-----------|----6-------------6--------| 
A|---------------------|-----------0h2-----------|--0h4-----------0n4--------| 
E|---------------------|-------------------------|---------------------------| 

   P.h.-|           P.h.----------------------------| 
e|-----------------------------|---------------------|-------------------| 
B|-----------------------------|--------------3------|-------------------| 
G|-----------------------------|-----2b--*2b-----2b--|--2p0-----2-----0--| 
D|--7--9--(7)p4--0--2h4--2--0--|---------------------|-------2-----2-----| 
A|-----------------------------|--2------------------|-------------------| 
E|-----------------------------|---------------------|-------------------| 

Let all notes ring 
e|-------2-------------2--------|-------4-------------4--------| 
B|----------2-------------2-----|----------4-------------4-----| 
G|----4--------4----4--------4--|----6--------6----6--------6--| 
D|----4-------------4-----------|----6-------------6-----------| 
A|--0h2-----------0h2-----------|--0h4-----------0h4-----------| 
E|------------------------------|------------------------------| 

   P.h.-------|                            P.h. 
e|--5-----------------------------------|------------|                 P.h. 
B|----------12----15b--15b--15p12--15b--|--15p12---------------------------| 
G|-----2b-------------------------------|---------14br--12--14p12------12--| 
D|--------------------------------------|--------------------------14------| 
A|--------------------------------------|----------------------------------| 
E|--------------------------------------|----------------------------------| 

Let all notes ring 
e|-------2-------------2--------|-------4-------------4--------| 
B|----------2-------------2-----|----------4-------------4-----| 
G|----4--------4----4--------4--|----6--------6----6--------6--| 
D|----4-------------4-----------|----6-------------6-----------| 
A|--0h2-----------0h2-----------|--0h4-----------0h4-----------| 
E|------------------------------|------------------------------| 

  P.h -----------------------------------------------------------------------| 
e|---------------------------------------------------------------------------| 
B|-14b--14br--14--12--14br--14--12--14br--14--12--14br--14--12--14br-14-12---| 
G|--------------------------------------------------------------------------7| 
D|---------------------------------------------------------------------------| 
A|---------------------------------------------------------------------------| 
E|---------------------------------------------------------------------------| 

  P.h.                                                        P.h. 
e|----------12-----------15--16--17--|--18--17b--17b--17--15----------| 
B|--------------12--15b--------------|------------------------17~~~~--| 
G|-----/13---------------------------|--------------------------------| 
D|--9--------------------------------|--------------------------------| 
A|-----------------------------------|--------------------------------| 
E|-----------------------------------|--------------------------------| 

Let all notes ring 
e|-------2-------------2--------|-------4-------------4--------| 
B|----------2-------------2-----|----------4-------------4-----| 
G|----4--------4----4--------4--|----6--------6----6--------6--| 
D|----4-------------4-----------|----6-------------6-----------| 
A|--0h2-----------0h2-----------|--0h4-----------0h4-----------| 
E|------------------------------|------------------------------| 

e|--------------------------|------------------------|-----------------------| 
B|--------------------------|--3--------------3------|--3--------------------| 
G|--2b--2b--2b--2b--2b--2b--|-----2b\--0--2b-----2b--|-----2b--2p0-----------| 
D|--------------------------|------------------------|--------------2--2-----| 
A|--------------------------|------------------------|------------------\----| 
E|--------------------------|------------------------|-------------------\/\/| 

Let all notes ring 
e|-------------2---------------4-----| 
B|--2-------------2---------------4--| 
G|-----4----4--------4------6--------| 
D|----------4---------------6--------| 
A|--------0h2-------------0h4--------| 
E|-----------------------------------| 
 
		  

See also:

tabs Guns N' Roses - Don't Cry tabs Aerosmith - Dream On tabs Guns N' Roses - Sweet Child o' mine tabs Guns N' Roses - Welcome to The Jungle tabs Rage Against The Machine - Killing In The Name (ver. 2) tabs The Doors - People Are Strange
e-chords

Other versions:

tabs Aerosmith - Dream On tabs Depeche Mode - Dream On tabs Nazareth - Dream On tabs Blackfoot - Dream On tabs Boyce Avenue - Dream On
auto scroll beats size up size down change color hide chords drawings
tab show chords e-chords YouTube Clip e-chords hide all tabs e-chords go to top tab

share with facebook