Blackfoot

Big Wheels

Blackfoot

tabs nolevel nolevel

by  ADALGOMES

save to print version add songbook text version e-mail correct tuner
chordsukulelecavacokeyboardtabbassdrumsharmonicaflute Guitar Pro
close

there isn't a video lesson for this song

chords

Big Wheels

	  		

Intro 
      (Bass ) 
e|---------------|---------------|---------------|---------------| 
B|---------------|---------------|---------------|---------------| 
G|---------------|---------------|---------------|---------------| 
D|---------------|---------------|---------------|---------------| 
A|---------------|---------------|---------------|---------------| 
E|---------------|---------------|---------------|---------------| 

e|---------------|---------------|---------------|---------------| 
B|---------------|---------------|---------------|---------------| 
G|---------------|---------------|---------------|---------------| 
D|---------------|---------------|---------------|---------------| 
A|---------------|---------------|---------------|---------------| 
E|---------------|---------------|---------------|---------------| 

e|---------------|---------------|-----------------|--------------------| 
B|---------------|---------------|-----------------|--------------------| 
G|---------------|---------------|-----------------|--------------------| 
D|-----6hb----4--|-----6----2----|----4brbrbrbrbr--|--4b--4b--4b--2--4--| 
A|---------------|---------------|-----------------|--------------------| 
E|---------------|---------------|-----------------|--------------------| 

e|-------------------------------------|------------------------------------| 
B|-------------------------------------|------------------------------------| 
G|--2h4p2h4p2h4p2h4p2h4p2h4p2ph4p2h4p--|--2h4p2h4p2h4p2h4p2h4p2h4p2ph4p2h4--| 
D|-------------------------------------|------------------------------------| 
A|-------------------------------------|------------------------------------| 
E|-------------------------------------|------------------------------------| 

e|-----------------------|--------------------|-----------------------| 
B|-----------------------|--------------------|-----------------------| 
G|--------------4--------|--------------------|--------------4--------| 
D|--------4--------------|-----4--0-----------|--------4--------------| 
A|--2--2-----2-----2--2--|--2--------4--0--3--|--2--2-----2-----2--2--| 
E|-----------------------|--------------------|-----------------------| 

e|--------------------|-----------------------|--------------------| 
B|--------------------|-----------------------|--------------------| 
G|--------------------|--------------4--------|--------------------| 
D|-----4--0-----------|--------4--------------|-----4--0-----------| 
A|--2--------4--0--3--|--2--2-----2-----2--2--|--2--------4--0--3--| 
E|--------------------|-----------------------|--------------------| 

e|-----------------------|--------------------|-----------------------| 
B|-----------------------|--------------------|-----------------------| 
G|--------------4--------|--------------------|--------------4--------| 
D|--------4--------------|-----4--0-----------|--------4--------------| 
A|--2--2-----2-----2--2--|--2--------4--0--3--|--2--2-----2-----2--2--| 
E|-----------------------|--------------------|-----------------------| 

e|--------------------|-----------------------|--------------------| 
B|--------------------|-----------------------|--------------------| 
G|--------------------|--------------4--------|--------------------| 
D|-----4--0-----------|--------4--------------|-----4--0-----------| 
A|--2--------4--0--3--|--2--2-----2-----2--2--|--2--------4--0--3--| 
E|--------------------|-----------------------|--------------------| 

e|-----------------------|--------------------|-----------------------| 
B|-----------------------|--------------------|-----------------------| 
G|--------------4--------|--------------------|--------------4--------| 
D|--------4--------------|-----4--0-----------|--------4--------------| 
A|--2--2-----2-----2--2--|--2--------4--0--3--|--2--2-----2-----2--2--| 
E|-----------------------|--------------------|-----------------------| 

e|-------------| 
B|-------------| 
G|-------------| 
D|---2----3----| 
A|---2----3----| 
E|---0----1----| 

1st Verse 

  (Galloping rhythm; eighth followed by two sixteenths) 
e|--------------------------------------|----------------------------| 
B|--------------------------------------|------------------------2---| 
G|--------------------------------------|------------------------2---| 
D|--4--4--4--4--4--4--4--4--4--4--4--4--|--4--4--4--4--4--4--4-------| 
A|--4--4--4--4--4--4--4--4--4--4--4--4--|--4--4--4--4--4--4--4-------| 
E|--2--2--2--2--2--2--2--2--2--2--2--2--|--2--2--2--2--2--2--2-------| 

e|--------------------------------------|----------------------------| 
B|--------------------------------------|------------------------2---| 
G|--------------------------------------|------------------------2---| 
D|--4--4--4--4--4--4--4--4--4--4--4--4--|--4--4--4--4--4--4--4-------| 
A|--4--4--4--4--4--4--4--4--4--4--4--4--|--4--4--4--4--4--4--4-------| 
E|--2--2--2--2--2--2--2--2--2--2--2--2--|--2--2--2--2--2--2--2-------| 

e|--------------------------------------|----------------------------| 
B|--------------------------------------|------------------------2---| 
G|--------------------------------------|------------------------2---| 
D|--4--4--4--4--4--4--4--4--4--4--4--4--|--4--4--4--4--4--4--4-------| 
A|--4--4--4--4--4--4--4--4--4--4--4--4--|--4--4--4--4--4--4--4-------| 
E|--2--2--2--2--2--2--2--2--2--2--2--2--|--2--2--2--2--2--2--2-------| 

e|--------------------------------------|----------------| 
B|--------------------------------------|----------------| 
G|--------------------------------------|-------2----3---| 
D|--4--4--4--4--4--4--4--4--4--4--4--4--|--4----2----3---| 
A|--4--4--4--4--4--4--4--4--4--4--4--4--|--4----0----1---| 
E|--2--2--2--2--2--2--2--2--2--2--2--2--|--2-------------| 

Intro Reprise 

e|-----------------------|--------------------|-----------------------| 
B|-----------------------|--------------------|-----------------------| 
G|--------------4--------|--------------------|--------------4--------| 
D|--------4--------------|-----4--0-----------|--------4--------------| 
A|--2--2-----2-----2--2--|--2--------4--0--3--|--2--2-----2-----2--2--| 
E|-----------------------|--------------------|-----------------------| 

e|--------------------|-----------------------|--------------------| 
B|--------------------|-----------------------|--------------------| 
G|--------------------|--------------4--------|--------------------| 
D|-----4--0-----------|--------4--------------|-----4--0-----------| 
A|--2--------4--0--3--|--2--2-----2-----2--2--|--2--------4--0--3--| 
E|--------------------|-----------------------|--------------------| 

e|-----------------------|-------------| 
B|-----------------------|-------------| 
G|--------------4--------|-------------| 
D|--------4--------------|---2-----3---| 
A|--2--2-----2-----2--2--|---2-----3---| 
E|-----------------------|---0-----1---| 

2nd Verse 

e|--------------------------------------|----------------------------| 
B|--------------------------------------|------------------------2---| 
G|--------------------------------------|------------------------2---| 
D|--4--4--4--4--4--4--4--4--4--4--4--4--|--4--4--4--4--4--4--4-------| 
A|--4--4--4--4--4--4--4--4--4--4--4--4--|--4--4--4--4--4--4--4-------| 
E|--2--2--2--2--2--2--2--2--2--2--2--2--|--2--2--2--2--2--2--2-------| 

e|--------------------------------------|----------------------------| 
B|--------------------------------------|------------------------2---| 
G|--------------------------------------|------------------------2---| 
D|--4--4--4--4--4--4--4--4--4--4--4--4--|--4--4--4--4--4--4--4-------| 
A|--4--4--4--4--4--4--4--4--4--4--4--4--|--4--4--4--4--4--4--4-------| 
E|--2--2--2--2--2--2--2--2--2--2--2--2--|--2--2--2--2--2--2--2-------| 

e|--------------------------------------|----------------------------| 
B|--------------------------------------|------------------------2---| 
G|--------------------------------------|------------------------2---| 
D|--4--4--4--4--4--4--4--4--4--4--4--4--|--4--4--4--4--4--4--4-------| 
A|--4--4--4--4--4--4--4--4--4--4--4--4--|--4--4--4--4--4--4--4-------| 
E|--2--2--2--2--2--2--2--2--2--2--2--2--|--2--2--2--2--2--2--2-------| 

e|--------------------------------------|------------------------| 
B|--------------------------------------|------------------------| 
G|--------------------------------------|------------------------| 
D|--4--4--4--4--4--4--4--4--4--4--4--4--|------4---------4-------| 
A|--4--4--4--4--4--4--4--4--4--4--4--4--|------4---------4-------| 
E|--2--2--2--2--2--2--2--2--2--2--2--2--|------2---------2-------| 

1st Chorus 
e|--------------|--------------|-----------------------| 
B|--------------|--------------|-----------------------| 
G|---7------7---|---6------6---|-----------------------| 
D|---7------7---|---6------6---|--4----4----4----4--4--| 
A|---5------5---|---4------4---|--4----4----4----4--4--| 
E|--------------|--------------|--2----2----2----2--2--| 

e|-----------------------|--------------|--------------|----------------| 
B|-----------------------|--------------|--------------|----------------| 
G|-----------------------|---7------7---|---6------6---|----------------| 
D|--4----4----4----4--4--|---7------7---|---6------6---|--4----4----4---| 
A|--4----4----4----4--4--|---5------5---|---4------4---|--4----4----4---| 
E|--2----2----2----2--2--|--------------|--------------|--2----2----2---| 

e|----------------|---------|---------|-----------------|-----------| 
B|----------------|---------|---------|-----------------|-----------| 
G|------------6---|----7----|----6----|-----------------|-----------| 
D|--4----4----6---|----7----|----6----|--4---4---4---4--|--4----4---| 
A|--4----4----4---|----5----|----4----|--4---4---4---4--|--4----4---| 
E|--2----2--------|---------|---------|--2---2---2---2--|--2----2---| 

e|--------------|-----------|-------------------------|----------| 
B|--------------|-----------|-------------------------|----------| 
G|--7-----6--7--|--9----9---|-------------------------|----11----| 
D|--7-----6--7--|--9----9---|--11----11----11----11\--|----11----| 
A|--5-----------|--7----7---|--11----11----11----11\--|----9-----| 
E|--------------|-----------|--9-----9-----9-----9\---|----------| 

Intro reprise 

e|-----------------------|--------------------|-----------------------| 
B|-----------------------|--------------------|-----------------------| 
G|--------------4--------|--------------------|--------------4--------| 
D|--------4--------------|-----4--0-----------|--------4--------------| 
A|--2--2-----2-----2--2--|--2--------4--0--3--|--2--2-----2-----2--2--| 
E|-----------------------|--------------------|-----------------------| 

e|--------------------|-----------------------|--------------------| 
B|--------------------|-----------------------|--------------------| 
G|--------------------|--------------4--------|--------------------| 
D|-----4--0-----------|--------4--------------|-----4--0-----------| 
A|--2--------4--0--3--|--2--2-----2-----2--2--|--2--------4--0--3--| 
E|--------------------|-----------------------|--------------------| 

e|-----------------------|-------------| 
B|-----------------------|-------------| 
G|--------------4--------|-------------| 
D|--------4--------------|---2-----3---| 
A|--2--2-----2-----2--2--|---2-----3---| 
E|-----------------------|---0-----1---| 

3rd verse 

e|--------------------------------------|----------------------------| 
B|--------------------------------------|------------------------2---| 
G|--------------------------------------|------------------------2---| 
D|--4--4--4--4--4--4--4--4--4--4--4--4--|--4--4--4--4--4--4--4-------| 
A|--4--4--4--4--4--4--4--4--4--4--4--4--|--4--4--4--4--4--4--4-------| 
E|--2--2--2--2--2--2--2--2--2--2--2--2--|--2--2--2--2--2--2--2-------| 

e|--------------------------------------|----------------------------| 
B|--------------------------------------|------------------------2---| 
G|--------------------------------------|------------------------2---| 
D|--4--4--4--4--4--4--4--4--4--4--4--4--|--4--4--4--4--4--4--4-------| 
A|--4--4--4--4--4--4--4--4--4--4--4--4--|--4--4--4--4--4--4--4-------| 
E|--2--2--2--2--2--2--2--2--2--2--2--2--|--2--2--2--2--2--2--2-------| 


e|--------------------------------------|----------------------------| 
B|--------------------------------------|------------------------2---| 
G|--------------------------------------|------------------------2---| 
D|--4--4--4--4--4--4--4--4--4--4--4--4--|--4--4--4--4--4--4--4-------| 
A|--4--4--4--4--4--4--4--4--4--4--4--4--|--4--4--4--4--4--4--4-------| 
E|--2--2--2--2--2--2--2--2--2--2--2--2--|--2--2--2--2--2--2--2-------| 

e|--------------------------------------|------------------------| 
B|--------------------------------------|------------------------| 
G|--------------------------------------|------------------------| 
D|--4--4--4--4--4--4--4--4--4--4--4--4--|------4---------4-------| 
A|--4--4--4--4--4--4--4--4--4--4--4--4--|------4---------4-------| 
E|--2--2--2--2--2--2--2--2--2--2--2--2--|------2---------2-------| 

2nd Chorus 

e|--------------|--------------|-----------------------| 
B|--------------|--------------|-----------------------| 
G|---7------7---|---6------6---|-----------------------| 
D|---7------7---|---6------6---|--4----4----4----4--4--| 
A|---5------5---|---4------4---|--4----4----4----4--4--| 
E|--------------|--------------|--2----2----2----2--2--| 

e|-----------------------|--------------|--------------|----------------| 
B|-----------------------|--------------|--------------|----------------| 
G|-----------------------|---7------7---|---6------6---|----------------| 
D|--4----4----4----4--4--|---7------7---|---6------6---|--4----4----4---| 
A|--4----4----4----4--4--|---5------5---|---4------4---|--4----4----4---| 
E|--2----2----2----2--2--|--------------|--------------|--2----2----2---| 

e|----------------|---------|---------|-----------------|-----------| 
B|----------------|---------|---------|-----------------|-----------| 
G|------------6---|----7----|----6----|-----------------|-----------| 
D|--4----4----6---|----7----|----6----|--4---4---4---4--|--4----4---| 
A|--4----4----4---|----5----|----4----|--4---4---4---4--|--4----4---| 
E|--2----2--------|---------|---------|--2---2---2---2--|--2----2---| 

e|--------------|-----------|-------------------------|----------| 
B|--------------|-----------|-------------------------|----------| 
G|--7-----6--7--|--9----9---|-------------------------|----11----| 
D|--7-----6--7--|--9----9---|--11----11----11----11\--|----11----| 
A|--5-----------|--7----7---|--11----11----11----11\--|----9-----| 
E|--------------|-----------|--9-----9-----9-----9\---|----------| 

Intro reprise 

e|-----------------------|--------------------|-----------------------| 
B|-----------------------|--------------------|-----------------------| 
G|--------------4--------|--------------------|--------------4--------| 
D|--------4--------------|-----4--0-----------|--------4--------------| 
A|--2--2-----2-----2--2--|--2--------4--0--3--|--2--2-----2-----2--2--| 
E|-----------------------|--------------------|-----------------------| 

e|--------------------|-----------------------|--------------------| 
B|--------------------|-----------------------|--------------------| 
G|--------------------|--------------4--------|--------------------| 
D|-----4--0-----------|--------4--------------|-----4--0-----------| 
A|--2--------4--0--3--|--2--2-----2-----2--2--|--2--------4--0--3--| 
E|--------------------|-----------------------|--------------------| 

                          Pick scrape 
e|-----------------------|-----------| 
B|-----------------------|-----------| 
G|--------------4--------|-----------| 
D|--------4--------------|-----------| 
A|--2--2-----2-----2--2--|-----------| 
E|-----------------------|-----------| 

Main Solo 

e|--------------------|--2---------|-----------------------------------| 
B|--------------------|------------|-----------------------------------| 
G|--4b--4b+--4b+--4b--|-------4br--|--2h4p2h4p2h4p2h4p2h4p2h4p2h4p2h4--| 
D|--------------------|------------|-----------------------------------| 
A|--------------------|------------|-----------------------------------| 
E|--------------------|------------|-----------------------------------| 

e|----------------------|------------------|--7--------------|-----------| 
B|-------------------7--|--7b--7b--7b--7b--|-----7pbr--5--7--|-----------| 
G|--2-\--/\/\/--4/6-----|------------------|-----------------|--6\----/--| 
D|-----\/---------------|------------------|-----------------|----\--/---| 
A|----------------------|------------------|-----------------|-----\/----| 
E|----------------------|------------------|-----------------|-----------| 

e|--14------|------14-----------------------|--------------------------------| 
B|------14--|--17------17b--17b--17pbr--14--|--17p14------14--17b--17pbr--14-| 
G|----------|-------------------------------|---------16---------------------| 
D|----------|-------------------------------|--------------------------------| 
A|----------|-------------------------------|--------------------------------| 
E|----------|-------------------------------|--------------------------------| 

                       Let Ring ----------| 
e|------------17-------17-------|--17-------17-------------| 
B|--17b--17b------17b------17b--|------17b------17pbr--14--| 
G|------------------------------|--------------------------| 
D|------------------------------|--------------------------| 
A|------------------------------|--------------------------| 
E|------------------------------|--------------------------| 

e|--17p14---------17p14---------17p14---------17p14---------17p14---------| 
B|---------17p14---------17p14---------17p14---------17p14---------17p14--| 
G|------------------------------------------------------------------------| 
D|------------------------------------------------------------------------| 
A|------------------------------------------------------------------------| 
E|------------------------------------------------------------------------| 

e|--17p14---------17p14---------17p14---------14--|-17b--17pbr--14------14----| 
B|---------17p14---------17p14---------14-17------|------------------17----17b| 
G|------------------------------------------------|---------------------------| 
D|------------------------------------------------|---------------------------| 
A|------------------------------------------------|---------------------------| 
E|------------------------------------------------|---------------------------| 

e|--14-------------------------|--------------------|---------7--| 
B|------17p14------14----------|--------7--8h10--9--|--9--10-----| 
G|-------------16------14------|--7--7--------------|------------| 
D|-------------------------16--|--------------------|------------| 
A|-----------------------------|--------------------|------------| 
E|-----------------------------|--------------------|------------| 

e|--7pbr--5--7--4--5--|-----4-----|--------------------|---------7--| 
B|--------------------|--7-----5--|--------7--9h10--9--|--9--10-----| 
G|--------------------|-----------|--7--7--------------|------------| 
D|--------------------|-----------|--------------------|------------| 
A|--------------------|-----------|--------------------|------------| 
E|--------------------|-----------|--------------------|------------| 

e|--10pbr--9--10--7--9--|------7------| 
B|----------------------|--10-----8\--| 
G|----------------------|-------------| 
D|----------------------|-------------| 
A|----------------------|-------------| 
E|----------------------|-------------| 

Bridge 

e|------------------------|---------------------------|-----------------| 
B|------------------------|---------------------------|-----------------| 
G|------------------------|---------------------------|--11------11\----| 
D|-------------7--9p7-----|--------------9--11p9------|--11------11\----| 
A|--5--5--7/9----------9--|--7--7--9/11-----------11--|--9-------9\-----| 
E|------------------------|---------------------------|-----------------| 

Intro Reprise 

e|-----------------------|--------------------|-----------------------| 
B|-----------------------|--------------------|-----------------------| 
G|--------------4--------|--------------------|--------------4--------| 
D|--------4--------------|-----4--0-----------|--------4--------------| 
A|--2--2-----2-----2--2--|--2--------4--0--3--|--2--2-----2-----2--2--| 
E|-----------------------|--------------------|-----------------------| 

e|--------------------|-----------------------|--------------------| 
B|--------------------|-----------------------|--------------------| 
G|--------------------|--------------4--------|--------------------| 
D|-----4--0-----------|--------4--------------|-----4--0-----------| 
A|--2--------4--0--3--|--2--2-----2-----2--2--|--2--------4--0--3--| 
E|--------------------|-----------------------|--------------------| 

e|-----------------------|-------------| 
B|-----------------------|-------------| 
G|--------------4--------|-------------| 
D|--------4--------------|---2-----3---| 
A|--2--2-----2-----2--2--|---2-----3---| 
E|-----------------------|---0-----1---| 

4th verse 

e|--------------------------------------|----------------------------| 
B|--------------------------------------|------------------------2---| 
G|--------------------------------------|------------------------2---| 
D|--4--4--4--4--4--4--4--4--4--4--4--4--|--4--4--4--4--4--4--4-------| 
A|--4--4--4--4--4--4--4--4--4--4--4--4--|--4--4--4--4--4--4--4-------| 
E|--2--2--2--2--2--2--2--2--2--2--2--2--|--2--2--2--2--2--2--2-------| 

e|--------------------------------------|----------------------------| 
B|--------------------------------------|------------------------2---| 
G|--------------------------------------|------------------------2---| 
D|--4--4--4--4--4--4--4--4--4--4--4--4--|--4--4--4--4--4--4--4-------| 
A|--4--4--4--4--4--4--4--4--4--4--4--4--|--4--4--4--4--4--4--4-------| 
E|--2--2--2--2--2--2--2--2--2--2--2--2--|--2--2--2--2--2--2--2-------| 

e|--------------------------------------|----------------------------| 
B|--------------------------------------|------------------------2---| 
G|--------------------------------------|------------------------2---| 
D|--4--4--4--4--4--4--4--4--4--4--4--4--|--4--4--4--4--4--4--4-------| 
A|--4--4--4--4--4--4--4--4--4--4--4--4--|--4--4--4--4--4--4--4-------| 
E|--2--2--2--2--2--2--2--2--2--2--2--2--|--2--2--2--2--2--2--2-------| 

e|--------------------------------------|------------------------| 
B|--------------------------------------|------------------------| 
G|--------------------------------------|------------------------| 
D|--4--4--4--4--4--4--4--4--4--4--4--4--|------4---------4-------| 
A|--4--4--4--4--4--4--4--4--4--4--4--4--|------4---------4-------| 
E|--2--2--2--2--2--2--2--2--2--2--2--2--|------2---------2-------| 

3rd Chorus 

e|--------------|--------------|-----------------------| 
B|--------------|--------------|-----------------------| 
G|---7------7---|---6------6---|-----------------------| 
D|---7------7---|---6------6---|--4----4----4----4--4--| 
A|---5------5---|---4------4---|--4----4----4----4--4--| 
E|--------------|--------------|--2----2----2----2--2--| 

e|-----------------------|--------------|--------------|----------------| 
B|-----------------------|--------------|--------------|----------------| 
G|-----------------------|---7------7---|---6------6---|----------------| 
D|--4----4----4----4--4--|---7------7---|---6------6---|--4----4----4---| 
A|--4----4----4----4--4--|---5------5---|---4------4---|--4----4----4---| 
E|--2----2----2----2--2--|--------------|--------------|--2----2----2---| 

e|----------------|---------|---------|-----------------|-----------| 
B|----------------|---------|---------|-----------------|-----------| 
G|------------6---|----7----|----6----|-----------------|-----------| 
D|--4----4----6---|----7----|----6----|--4---4---4---4--|--4----4---| 
A|--4----4----4---|----5----|----4----|--4---4---4---4--|--4----4---| 
E|--2----2--------|---------|---------|--2---2---2---2--|--2----2---| 

e|--------------|-----------|-------------------------|----------| 
B|--------------|-----------|-------------------------|----------| 
G|--7-----6--7--|--9----9---|-------------------------|----11----| 
D|--7-----6--7--|--9----9---|--11----11----11----11\--|----11----| 
A|--5-----------|--7----7---|--11----11----11----11\--|----9-----| 
E|--------------|-----------|--9-----9-----9-----9\---|----------| 

 Intro reprise 

     (Bass and Drums ) 
e|---------------|---------------|---------------|---------------| 
B|---------------|---------------|---------------|---------------| 
G|---------------|---------------|---------------|---------------| 
D|---------------|---------------|---------------|---------------| 
A|---------------|---------------|---------------|---------------| 
E|---------------|---------------|---------------|---------------| 

e|---------------|---------------|---------------|---------------| 
B|---------------|---------------|---------------|---------------| 
G|---------------|---------------|---------------|---------------| 
D|---------------|---------------|---------------|---------------| 
A|---------------|---------------|---------------|---------------| 
E|---------------|---------------|---------------|---------------| 

e|---------------|---------------|-----------------|--------------------| 
B|---------------|---------------|-----------------|--------------------| 
G|---------------|---------------|-----------------|--------------------| 
D|-----6hb----4--|-----6----2----|----4brbrbrbrbr--|--4b--4b--4b--2--4--| 
A|---------------|---------------|-----------------|--------------------| 
E|---------------|---------------|-----------------|--------------------| 

e|-------------------------------------|------------------------------------| 
B|-------------------------------------|------------------------------------| 
G|--2h4p2h4p2h4p2h4p2h4p2h4p2ph4p2h4p--|--2h4p2h4p2h4p2h4p2h4p2h4p2ph4p2h4--| 
D|-------------------------------------|------------------------------------| 
A|-------------------------------------|------------------------------------| 
E|-------------------------------------|------------------------------------| 

e|-----------------------|--------------------|-----------------------| 
B|-----------------------|--------------------|-----------------------| 
G|--------------4--------|--------------------|--------------4--------| 
D|--------4--------------|-----4--0-----------|--------4--------------| 
A|--2--2-----2-----2--2--|--2--------4--0--3--|--2--2-----2-----2--2--| 
E|-----------------------|--------------------|-----------------------| 

e|--------------------|-----------------------|--------------------| 
B|--------------------|-----------------------|--------------------| 
G|--------------------|--------------4--------|--------------------| 
D|-----4--0-----------|--------4--------------|-----4--0-----------| 
A|--2--------4--0--3--|--2--2-----2-----2--2--|--2--------4--0--3--| 
E|--------------------|-----------------------|--------------------| 

e|-----------------------|--------------------|--------------| 
B|-----------------------|--------------------|--------------| 
G|--------------4--------|--------------------|--------------| 
D|--------4--------------|-----4--0-----------|--0-----------| 
A|--2--2-----2-----2--2--|--2--------4--0--3--|-----4--0--3--| 
E|-----------------------|--------------------|--------------| 

Guitar II (Overdriven) 

Intro 
      (Bass ) 
e|---------------|---------------|---------------|---------------| 
B|---------------|---------------|---------------|---------------| 
G|---------------|---------------|---------------|---------------| 
D|---------------|---------------|---------------|---------------| 
A|---------------|---------------|---------------|---------------| 
E|---------------|---------------|---------------|---------------| 

e|---------------|---------------|---------------|---------------| 
B|---------------|---------------|---------------|---------------| 
G|---------------|---------------|---------------|---------------| 
D|---------------|---------------|---------------|---------------| 
A|---------------|---------------|---------------|---------------| 
E|---------------|---------------|---------------|---------------| 

e|--------------|-----------|----------------|-----------------------| 
B|--------------|-----------|----------------|-----------------------| 
G|--------------|-----------|----------------|-----------------------| 
D|--------------|-----------|----------------|-----------------------| 
A|----7hb---5---|-----7-----|-----5brbrbrb---|--5b---5b---5b---2-----| 
E|--------------|-----------|----------------|-----------------------| 

e|------------------------------------|-----------------------------------| 
B|------------------------------------|-----------------------------------| 
G|------------------------------------|-----------------------------------| 
D|------------------------------------|-----------------------------------| 
A|--0h2p0h2p0h2p0h2p0h2p0h2p0h2p0h2p--|--0h2p0h2p0h2p0h2p0h2p0h2p0h2p0h2--| 
E|------------------------------------|-----------------------------------| 

e|-----------------------|--------------------|-----------------------| 
B|-----------------------|--------------------|-----------------------| 
G|--------------4--------|--------------------|--------------4--------| 
D|--------4--------------|-----4--0-----------|--------4--------------| 
A|--2--2-----2-----2--2--|--2--------4--0--3--|--2--2-----2-----2--2--| 
E|-----------------------|--------------------|-----------------------| 

e|--------------------|-----------------------|--------------------| 
B|--------------------|-----------------------|--------------------| 
G|--------------------|--------------4--------|--------------------| 
D|-----4--0-----------|--------4--------------|-----4--0-----------| 
A|--2--------4--0--3--|--2--2-----2-----2--2--|--2--------4--0--3--| 
E|--------------------|-----------------------|--------------------| 

e|-----------------------|--------------------|--------------------| 
B|-----------------------|--------------------|-----2--------------| 
G|--------------4--------|--------------------|--------2--1-----0--| 
D|--------4--------------|-----4--0-----------|--4-----------2-----| 
A|--2--2-----2-----2--2--|--2--------4--0--3--|--------------------| 
E|-----------------------|--------------------|--------------------| 

e|--------------2--------|--------------------|--------------2--------| 
B|--------2--------------|-----2--------------|--------2--------------| 
G|-----------------------|--------2--1-----0--|-----------------------| 
D|--4--4-----4-----4--4--|--4-----------2-----|--4--4-----4-----4--4--| 
A|-----------------------|--------------------|-----------------------| 
E|-----------------------|--------------------|-----------------------| 

e|--------------------|--------------2--------|----------------| 
B|-----2--------------|--------2--------------|----------------| 
G|--------2--1-----0--|-----------------------|----------------| 
D|--4-----------2-----|--4--4-----4-----4--4--|----2-------3---| 
A|--------------------|-----------------------|----2-------3---| 
E|--------------------|-----------------------|----0-------1---| 

1st verse 

  (Galloping rhythm; eighth followed by two sixteenths) 
e|--------------------------------------|----------------------------| 
B|--------------------------------------|------------------------2---| 
G|--------------------------------------|------------------------2---| 
D|--4--4--4--4--4--4--4--4--4--4--4--4--|--4--4--4--4--4--4--4-------| 
A|--4--4--4--4--4--4--4--4--4--4--4--4--|--4--4--4--4--4--4--4-------| 
E|--2--2--2--2--2--2--2--2--2--2--2--2--|--2--2--2--2--2--2--2-------| 

e|--------------------------------------|----------------------------| 
B|--------------------------------------|------------------------2---| 
G|--------------------------------------|------------------------2---| 
D|--4--4--4--4--4--4--4--4--4--4--4--4--|--4--4--4--4--4--4--4-------| 
A|--4--4--4--4--4--4--4--4--4--4--4--4--|--4--4--4--4--4--4--4-------| 
E|--2--2--2--2--2--2--2--2--2--2--2--2--|--2--2--2--2--2--2--2-------| 

e|--------------------------------------|----------------------------| 
B|--------------------------------------|------------------------2---| 
G|--------------------------------------|------------------------2---| 
D|--4--4--4--4--4--4--4--4--4--4--4--4--|--4--4--4--4--4--4--4-------| 
A|--4--4--4--4--4--4--4--4--4--4--4--4--|--4--4--4--4--4--4--4-------| 
E|--2--2--2--2--2--2--2--2--2--2--2--2--|--2--2--2--2--2--2--2-------| 

e|--------------------------------------|----------------| 
B|--------------------------------------|----------------| 
G|--------------------------------------|-------2----3---| 
D|--4--4--4--4--4--4--4--4--4--4--4--4--|--4----2----3---| 
A|--4--4--4--4--4--4--4--4--4--4--4--4--|--4----0----1---| 
E|--2--2--2--2--2--2--2--2--2--2--2--2--|--2-------------| 

Intro Reprise 

e|-----------------------|--------------------|-----------------------| 
B|-----------------------|--------------------|-----------------------| 
G|--------------4--------|--------------------|--------------4--------| 
D|--------4--------------|-----4--0-----------|--------4--------------| 
A|--2--2-----2-----2--2--|--2--------4--0--3--|--2--2-----2-----2--2--| 
E|-----------------------|--------------------|-----------------------| 

e|--------------------|--------------2----------|---------------------| 
B|--------------------|-------------------------|-----2---------------| 
G|--------------------|--------2----------------|--------2--1------0--| 
D|-----4--0-----------|--4--4-----4-----4----4--|--4-----------2------| 
A|--2--------4--0--3--|-------------------------|---------------------| 
E|--------------------|-------------------------|---------------------| 

e|--------------2--------|-------------| 
B|--------2--------------|-------------| 
G|-----------------------|-------------| 
D|--4--4-----4-----4--4--|---2-----3---| 
A|-----------------------|---2-----3---| 
E|-----------------------|---0-----1---| 

2nd Verse 

e|--------------------------------------|----------------------------| 
B|--------------------------------------|------------------------2---| 
G|--------------------------------------|------------------------2---| 
D|--4--4--4--4--4--4--4--4--4--4--4--4--|--4--4--4--4--4--4--4-------| 
A|--4--4--4--4--4--4--4--4--4--4--4--4--|--4--4--4--4--4--4--4-------| 
E|--2--2--2--2--2--2--2--2--2--2--2--2--|--2--2--2--2--2--2--2-------| 

e|--------------------------------------|----------------------------| 
B|--------------------------------------|------------------------2---| 
G|--------------------------------------|------------------------2---| 
D|--4--4--4--4--4--4--4--4--4--4--4--4--|--4--4--4--4--4--4--4-------| 
A|--4--4--4--4--4--4--4--4--4--4--4--4--|--4--4--4--4--4--4--4-------| 
E|--2--2--2--2--2--2--2--2--2--2--2--2--|--2--2--2--2--2--2--2-------| 


e|--------------------------------------|----------------------------| 
B|--------------------------------------|------------------------2---| 
G|--------------------------------------|------------------------2---| 
D|--4--4--4--4--4--4--4--4--4--4--4--4--|--4--4--4--4--4--4--4-------| 
A|--4--4--4--4--4--4--4--4--4--4--4--4--|--4--4--4--4--4--4--4-------| 
E|--2--2--2--2--2--2--2--2--2--2--2--2--|--2--2--2--2--2--2--2-------| 

e|--------------------------------------|-------------| 
B|--------------------------------------|-------------| 
G|--------------------------------------|-------------| 
D|--4--4--4--4--4--4--4--4--4--4--4--4--|------4------| 
A|--4--4--4--4--4--4--4--4--4--4--4--4--|------4------| 
E|--2--2--2--2--2--2--2--2--2--2--2--2--|------2------| 

1st Chorus 

e|---------------|-------------------|---------------------------| 
B|-------7---7---|-------6----6/11---|--12---12---11---12---11---| 
G|--7----7---7---|--6----6----6/11---|--11---11---11---11---11---| 
D|--7----7---7---|--6----6----6/11---|--11---11---11---11---11---| 
A|--5------------|--4-----------9----|---------------------------| 
E|---------------|-------------------|---------------------------| 

e|------------------|----------------------|-----------------------| 
B|-------7---7---7--|-------6---6---6/11---|--12---11---12---11----| 
G|--7----7---7---7--|--6----6---6---6/11---|--11---11---11---11----| 
D|--7----7---7---7--|--6----6---6---6/11---|--11---11---11---11----| 
A|--5---------------|--4--------------9----|-----------------------| 
E|------------------|----------------------|-----------------------| 

e|--------------------------|---------------|-------------------| 
B|--12---11---12---11---11--|-------7---7---|-------6----6/11---| 
G|--11---11---11---11---11--|--7----7---7---|--6----6----6/11---| 
D|--11---11---11---11---11--|--7----7---7---|--6----6----6/11---| 
A|--------------------------|--5------------|--4-----------9----| 
E|--------------------------|---------------|-------------------| 

e|--------------------------------|----------|--------------------| 
B|--12---12---12---11---11h12p11--|----------|-------9---10---9---| 
G|--11---11---11---11---11----11--|----7-----|--9----9---9----9---| 
D|--11---11---11---11---11----11--|----7-----|--9----9---9----9---| 
A|--------------------------------|----5-----|--7-----------------| 
E|--------------------------------|----------|--------------------| 

e|-------------------------|----------| 
B|-------------------------|----------| 
G|-------------------------|----11----| 
D|--11----11----11----11\--|----11----| 
A|--11----11----11----11\--|----9-----| 
E|--9-----9-----9-----9\---|----------| 

Intro Reprise 

e|-----------------------|--------------------|-----------------------| 
B|-----------------------|--------------------|-----------------------| 
G|--------------4--------|--------------------|--------------4--------| 
D|--------4--------------|-----4--0-----------|--------4--------------| 
A|--2--2-----2-----2--2--|--2--------4--0--3--|--2--2-----2-----2--2--| 
E|-----------------------|--------------------|-----------------------| 


e|--------------------|--------------2----------|---------------------| 
B|--------------------|-------------------------|-----2---------------| 
G|--------------------|--------2----------------|--------2--1------0--| 
D|-----4--0-----------|--4--4-----4-----4----4--|--4-----------2------| 
A|--2--------4--0--3--|-------------------------|---------------------| 
E|--------------------|-------------------------|---------------------| 

e|--------------2--------|-------------| 
B|--------2--------------|-------------| 
G|-----------------------|-------------| 
D|--4--4-----4-----4--4--|---2-----3---| 
A|-----------------------|---2-----3---| 
E|-----------------------|---0-----1---| 

3nd Verse 

e|--------------------------------------|----------------------------| 
B|--------------------------------------|------------------------2---| 
G|--------------------------------------|------------------------2---| 
D|--4--4--4--4--4--4--4--4--4--4--4--4--|--4--4--4--4--4--4--4-------| 
A|--4--4--4--4--4--4--4--4--4--4--4--4--|--4--4--4--4--4--4--4-------| 
E|--2--2--2--2--2--2--2--2--2--2--2--2--|--2--2--2--2--2--2--2-------| 

e|--------------------------------------|----------------------------| 
B|--------------------------------------|------------------------2---| 
G|--------------------------------------|------------------------2---| 
D|--4--4--4--4--4--4--4--4--4--4--4--4--|--4--4--4--4--4--4--4-------| 
A|--4--4--4--4--4--4--4--4--4--4--4--4--|--4--4--4--4--4--4--4-------| 
E|--2--2--2--2--2--2--2--2--2--2--2--2--|--2--2--2--2--2--2--2-------| 

e|--------------------------------------|----------------------------| 
B|--------------------------------------|------------------------2---| 
G|--------------------------------------|------------------------2---| 
D|--4--4--4--4--4--4--4--4--4--4--4--4--|--4--4--4--4--4--4--4-------| 
A|--4--4--4--4--4--4--4--4--4--4--4--4--|--4--4--4--4--4--4--4-------| 
E|--2--2--2--2--2--2--2--2--2--2--2--2--|--2--2--2--2--2--2--2-------| 

e|--------------------------------------|-------------| 
B|--------------------------------------|-------------| 
G|--------------------------------------|-------------| 
D|--4--4--4--4--4--4--4--4--4--4--4--4--|------4------| 
A|--4--4--4--4--4--4--4--4--4--4--4--4--|------4------| 
E|--2--2--2--2--2--2--2--2--2--2--2--2--|------2------| 

2st Chorus 

e|---------------|-------------------|---------------------------| 
B|-------7---7---|-------6----6/11---|--12---12---11---12---11---| 
G|--7----7---7---|--6----6----6/11---|--11---11---11---11---11---| 
D|--7----7---7---|--6----6----6/11---|--11---11---11---11---11---| 
A|--5------------|--4-----------9----|---------------------------| 
E|---------------|-------------------|---------------------------| 

e|------------------|----------------------|-----------------------| 
B|-------7---7---7--|-------6---6---6/11---|--12---11---12---11----| 
G|--7----7---7---7--|--6----6---6---6/11---|--11---11---11---11----| 
D|--7----7---7---7--|--6----6---6---6/11---|--11---11---11---11----| 
A|--5---------------|--4--------------9----|-----------------------| 
E|------------------|----------------------|-----------------------| 

e|--------------------------|---------------|-------------------| 
B|--12---11---12---11---11--|-------7---7---|-------6----6/11---| 
G|--11---11---11---11---11--|--7----7---7---|--6----6----6/11---| 
D|--11---11---11---11---11--|--7----7---7---|--6----6----6/11---| 
A|--------------------------|--5------------|--4-----------9----| 
E|--------------------------|---------------|-------------------| 

e|--------------------------------|----------|--------------------| 
B|--12---12---12---11---11h12p11--|----------|-------9---10---9---| 
G|--11---11---11---11---11----11--|----7-----|--9----9---9----9---| 
D|--11---11---11---11---11----11--|----7-----|--9----9---9----9---| 
A|--------------------------------|----5-----|--7-----------------| 
E|--------------------------------|----------|--------------------| 

e|-------------------------|----------| 
B|-------------------------|----------| 
G|-------------------------|----11----| 
D|--11----11----11----11\--|----11----| 
A|--11----11----11----11\--|----9-----| 
E|--9-----9-----9-----9\---|----------| 

Intro Reprise 

e|-----------------------|--------------------|-----------------------| 
B|-----------------------|--------------------|-----------------------| 
G|--------------4--------|--------------------|--------------4--------| 
D|--------4--------------|-----4--0-----------|--------4--------------| 
A|--2--2-----2-----2--2--|--2--------4--0--3--|--2--2-----2-----2--2--| 
E|-----------------------|--------------------|-----------------------| 

e|--------------------|--------------2----------|---------------------| 
B|--------------------|-------------------------|-----2---------------| 
G|--------------------|--------2----------------|--------2--1------0--| 
D|-----4--0-----------|--4--4-----4-----4----4--|--4-----------2------| 
A|--2--------4--0--3--|-------------------------|---------------------| 
E|--------------------|-------------------------|---------------------| 

e|--------------2--------|-------------| 
B|--------2--------------|-------------| 
G|-----------------------|-------------| 
D|--4--4-----4-----4--4--|---2-----3---| 
A|-----------------------|---2-----3---| 
E|-----------------------|---0-----1---| 

Main Solo 

e|--------------------------------------|----------------------------| 
B|--------------------------------------|----------------------------| 
G|--------------------------------------|------------------------2---| 
D|--4--4--4--4--4--4--4--4--4--4--4--4--|--4--4--4--4--4--4--4---2---| 
A|--4--4--4--4--4--4--4--4--4--4--4--4--|--4--4--4--4--4--4--4---0---| 
E|--2--2--2--2--2--2--2--2--2--2--2--2--|--2--2--2--2--2--2--2-------| 

e|--------------------------------------|----------------------------| 
B|--------------------------------------|----------------------------| 
G|--------------------------------------|------------------------2---| 
D|--4--4--4--4--4--4--4--4--4--4--4--4--|--4--4--4--4--4--4--4---2---| 
A|--4--4--4--4--4--4--4--4--4--4--4--4--|--4--4--4--4--4--4--4---0---| 
E|--2--2--2--2--2--2--2--2--2--2--2--2--|--2--2--2--2--2--2--2-------| 

e|--------------------------------------|----------------------------| 
B|--------------------------------------|----------------------------| 
G|--------------------------------------|------------------------2---| 
D|--4--4--4--4--4--4--4--4--4--4--4--4--|--4--4--4--4--4--4--4---2---| 
A|--4--4--4--4--4--4--4--4--4--4--4--4--|--4--4--4--4--4--4--4---0---| 
E|--2--2--2--2--2--2--2--2--2--2--2--2--|--2--2--2--2--2--2--2-------| 

e|--------------------------------------|----------------------------| 
B|--------------------------------------|----------------------------| 
G|--------------------------------------|------------------------2---| 
D|--4--4--4--4--4--4--4--4--4--4--4--4--|--4--4--4--4--4--4--4---2---| 
A|--4--4--4--4--4--4--4--4--4--4--4--4--|--4--4--4--4--4--4--4---0---| 
E|--2--2--2--2--2--2--2--2--2--2--2--2--|--2--2--2--2--2--2--2-------| 

e|--------------------------------------|----------------------------| 
B|--------------------------------------|----------------------------| 
G|--------------------------------------|------------------------2---| 
D|--4--4--4--4--4--4--4--4--4--4--4--4--|--4--4--4--4--4--4--4---2---| 
A|--4--4--4--4--4--4--4--4--4--4--4--4--|--4--4--4--4--4--4--4---0---| 
E|--2--2--2--2--2--2--2--2--2--2--2--2--|--2--2--2--2--2--2--2-------| 

e|--------------------------------------|----------------------------| 
B|--------------------------------------|----------------------------| 
G|--------------------------------------|------------------------2---| 
D|--4--4--4--4--4--4--4--4--4--4--4--4--|--4--4--4--4--4--4--4---2---| 
A|--4--4--4--4--4--4--4--4--4--4--4--4--|--4--4--4--4--4--4--4---0---| 
E|--2--2--2--2--2--2--2--2--2--2--2--2--|--2--2--2--2--2--2--2-------| 

e|--------------------------------------|----------------------------| 
B|--------------------------------------|----------------------------| 
G|--------------------------------------|------------------------2---| 
D|--4--4--4--4--4--4--4--4--4--4--4--4--|--4--4--4--4--4--4--4---2---| 
A|--4--4--4--4--4--4--4--4--4--4--4--4--|--4--4--4--4--4--4--4---0---| 
E|--2--2--2--2--2--2--2--2--2--2--2--2--|--2--2--2--2--2--2--2-------| 

e|--------------------------------------|----------------------------| 
B|--------------------------------------|----------------------------| 
G|--------------------------------------|----------------------------| 
D|--4--4--4--4--4--4--4--4--4--4--4--4--|--4--4--4--4--4--4--4--4----| 
A|--4--4--4--4--4--4--4--4--4--4--4--4--|--4--4--4--4--4--4--4--4----| 
E|--2--2--2--2--2--2--2--2--2--2--2--2--|--2--2--2--2--2--2--2--2----| 

e|-----------------------------|--------------|--10pbr--9--10------9--| 
B|------------10---12h14---12--|--12--14--15--|----------------12-----| 
G|--11----11-------------------|--------------|-----------------------| 
D|-----------------------------|--------------|-----------------------| 
A|-----------------------------|--------------|-----------------------| 
E|-----------------------------|--------------|-----------------------| 

e|--------------|---------------11h12------|--------------| 
B|--10--12------|-----------14---------15--|--15--14--15--| 
G|----------12--|--14---14-----------------|--------------| 
D|--------------|--------------------------|--------------| 
A|--------------|--------------------------|--------------| 
E|--------------|--------------------------|--------------| 

e|----------------------------|-------------| 
B|--12tqpbr--10--12--9--10----|------9------| 
G|----------------------------|--11-----9---| 
D|----------------------------|-------------| 
A|----------------------------|-------------| 
E|----------------------------|-------------| 

Bridge 

e|-----------|-----------|-----------------| 
B|-----------|-----------|-----------------| 
G|----7------|----9------|-----------------| 
D|----7------|----9------|----4-------4\---| 
A|----5------|----7------|----4-------4\---| 
E|-----------|-----------|----2-------2\---| 

Intro Reprise 

e|-----------------------|--------------------|-----------------------| 
B|-----------------------|--------------------|-----------------------| 
G|--------------4--------|--------------------|--------------4--------| 
D|--------4--------------|-----4--0-----------|--------4--------------| 
A|--2--2-----2-----2--2--|--2--------4--0--3--|--2--2-----2-----2--2--| 
E|-----------------------|--------------------|-----------------------| 


e|--------------------|--------------2----------|---------------------| 
B|--------------------|-------------------------|-----2---------------| 
G|--------------------|--------2----------------|--------2--1------0--| 
D|-----4--0-----------|--4--4-----4-----4----4--|--4-----------2------| 
A|--2--------4--0--3--|-------------------------|---------------------| 
E|--------------------|-------------------------|---------------------| 

e|--------------2--------|-------------| 
B|--------2--------------|-------------| 
G|-----------------------|-------------| 
D|--4--4-----4-----4--4--|---2-----3---| 
A|-----------------------|---2-----3---| 
E|-----------------------|---0-----1---| 

4th Verse 

e|--------------------------------------|----------------------------| 
B|--------------------------------------|------------------------2---| 
G|--------------------------------------|------------------------2---| 
D|--4--4--4--4--4--4--4--4--4--4--4--4--|--4--4--4--4--4--4--4-------| 
A|--4--4--4--4--4--4--4--4--4--4--4--4--|--4--4--4--4--4--4--4-------| 
E|--2--2--2--2--2--2--2--2--2--2--2--2--|--2--2--2--2--2--2--2-------| 

e|--------------------------------------|----------------------------| 
B|--------------------------------------|------------------------2---| 
G|--------------------------------------|------------------------2---| 
D|--4--4--4--4--4--4--4--4--4--4--4--4--|--4--4--4--4--4--4--4-------| 
A|--4--4--4--4--4--4--4--4--4--4--4--4--|--4--4--4--4--4--4--4-------| 
E|--2--2--2--2--2--2--2--2--2--2--2--2--|--2--2--2--2--2--2--2-------| 

e|--------------------------------------|----------------------------| 
B|--------------------------------------|------------------------2---| 
G|--------------------------------------|------------------------2---| 
D|--4--4--4--4--4--4--4--4--4--4--4--4--|--4--4--4--4--4--4--4-------| 
A|--4--4--4--4--4--4--4--4--4--4--4--4--|--4--4--4--4--4--4--4-------| 
E|--2--2--2--2--2--2--2--2--2--2--2--2--|--2--2--2--2--2--2--2-------| 

e|--------------------------------------|-------------| 
B|--------------------------------------|-------------| 
G|--------------------------------------|-------------| 
D|--4--4--4--4--4--4--4--4--4--4--4--4--|------4------| 
A|--4--4--4--4--4--4--4--4--4--4--4--4--|------4------| 
E|--2--2--2--2--2--2--2--2--2--2--2--2--|------2------| 

3rd Chorus 

e|---------------|-------------------|---------------------------| 
B|-------7---7---|-------6----6/11---|--12---12---11---12---11---| 
G|--7----7---7---|--6----6----6/11---|--11---11---11---11---11---| 
D|--7----7---7---|--6----6----6/11---|--11---11---11---11---11---| 
A|--5------------|--4-----------9----|---------------------------| 
E|---------------|-------------------|---------------------------| 

e|------------------|----------------------|-----------------------| 
B|-------7---7---7--|-------6---6---6/11---|--12---11---12---11----| 
G|--7----7---7---7--|--6----6---6---6/11---|--11---11---11---11----| 
D|--7----7---7---7--|--6----6---6---6/11---|--11---11---11---11----| 
A|--5---------------|--4--------------9----|-----------------------| 
E|------------------|----------------------|-----------------------| 

e|--------------------------|---------------|-------------------| 
B|--12---11---12---11---11--|-------7---7---|-------6----6/11---| 
G|--11---11---11---11---11--|--7----7---7---|--6----6----6/11---| 
D|--11---11---11---11---11--|--7----7---7---|--6----6----6/11---| 
A|--------------------------|--5------------|--4-----------9----| 
E|--------------------------|---------------|-------------------| 

e|--------------------------------|----------|--------------------| 
B|--12---12---12---11---11h12p11--|----------|-------9---10---9---| 
G|--11---11---11---11---11----11--|----7-----|--9----9---9----9---| 
D|--11---11---11---11---11----11--|----7-----|--9----9---9----9---| 
A|--------------------------------|----5-----|--7-----------------| 
E|--------------------------------|----------|--------------------| 

e|-------------------------|----------| 
B|-------------------------|----------| 
G|-------------------------|----11----| 
D|--11----11----11----11\--|----11----| 
A|--11----11----11----11\--|----9-----| 
E|--9-----9-----9-----9\---|----------| 

Intro 
      (Bass and Drums) 
e|---------------|---------------|---------------|---------------| 
B|---------------|---------------|---------------|---------------| 
G|---------------|---------------|---------------|---------------| 
D|---------------|---------------|---------------|---------------| 
A|---------------|---------------|---------------|---------------| 
E|---------------|---------------|---------------|---------------| 


e|---------------|---------------|---------------|---------------| 
B|---------------|---------------|---------------|---------------| 
G|---------------|---------------|---------------|---------------| 
D|---------------|---------------|---------------|---------------| 
A|---------------|---------------|---------------|---------------| 
E|---------------|---------------|---------------|---------------| 

e|--------------|-----------|----------------|-----------------------| 
B|--------------|-----------|----------------|-----------------------| 
G|--------------|-----------|----------------|-----------------------| 
D|--------------|-----------|----------------|-----------------------| 
A|----7hb---5---|-----7-----|-----5brbrbrb---|--5b---5b---5b---2-----| 
E|--------------|-----------|----------------|-----------------------| 

e|------------------------------------|-----------------------------------| 
B|------------------------------------|-----------------------------------| 
G|------------------------------------|-----------------------------------| 
D|------------------------------------|-----------------------------------| 
A|--0h2p0h2p0h2p0h2p0h2p0h2p0h2p0h2p--|--0h2p0h2p0h2p0h2p0h2p0h2p0h2p0h2--| 
E|------------------------------------|-----------------------------------| 

e|-----------------------|--------------------|-----------------------| 
B|-----------------------|--------------------|-----------------------| 
G|--------------4--------|--------------------|--------------4--------| 
D|--------4--------------|-----4--0-----------|--------4--------------| 
A|--2--2-----2-----2--2--|--2--------4--0--3--|--2--2-----2-----2--2--| 
E|-----------------------|--------------------|-----------------------| 

e|--------------------|--------------2--------|--------------------| 
B|--------------------|--------2--------------|-----2--------------| 
G|--------------------|-----------------------|--------2--1-----0--| 
D|-----4--0-----------|--4--4-----4-----4--4--|--4-----------2-----| 
A|--2--------4--0--3--|-----------------------|--------------------| 
E|--------------------|-----------------------|--------------------| 

e|--------------2--------|--------------------|--------------| 
B|--------2--------------|-----2--------------|--------------| 
G|-----------------------|--------2--1-----0--|--2--1-----0--| 
D|--4--4-----4-----4--4--|--4-----------2-----|--------2-----| 
A|-----------------------|--------------------|--------------| 
E|-----------------------|--------------------|--------------| 

************************************ 

| /   slide up 
| \   slide down 
| h   hammer-on 
| p   pull-off 
| ~   vibrato 
| +   harmonic 
| x   Mute note 
| b   Bend 
| pb  Pre-bend 
| br  Bend release 
| pbr Pre-bend release 
| brb Bend release bend 

************************************ 
		  

See also:

tabs Guns N' Roses - Don't Cry tabs Aerosmith - Dream On tabs Guns N' Roses - Sweet Child o' mine tabs Guns N' Roses - Welcome to The Jungle tabs Rage Against The Machine - Killing In The Name (ver. 2) tabs The Doors - People Are Strange
e-chords

Other versions:

tabs Blackfoot - Big Wheels
auto scroll beats size up size down change color hide chords drawings
tab show chords e-chords YouTube Clip e-chords hide all tabs e-chords go to top tab

share with facebook