Black Veil Brides

Youth And Whisky

Black Veil Brides

tabs

by  JOV-CORREA

save to print version add songbook text version e-mail correct tuner
chordsukulelecavacokeyboardtabbassdrumsharmonicaflute Guitar Pro
close

there isn't a video lesson for this song

chords

Youth And Whisky

	  		
INTRO: 
(After First Ending at || go back to here then go to the Second Ending) 

|---------------------------------------------------------------------------| 
|---------------------------------------------------------------------------| 
|---------------------------------------------------------------------------| 
|--------12-------------------------------------12----------12h13p12-10h12--| 
|-----------15-13-12-----------------12------------15-13-12-----------------| 
|000-0-0-------------000-0-0-0-12-15----000-0-0-----------------------------| 
 *** * *             *** * * *          *** * * 
                                            FIRST ENDING... 
|-----------------------------------------||--------------------------------| 
|-----------------------------------------||--------------------------------| 
|11---------------------------------------||--------------------------------| 
|---13-12-13------------------------------||--------------------------------| 
|--------------------12-------------------||-----12h15p12---9h12p9----------| 
|------------000-0-0----15-13-12-000-0-0-0||12-15----------0--------0-7h10p7| 
             *** * *             *** * * *                *        * 
                     SECOND ENDING... 
|------------------||-------------------------------------------------------| 
|------------------||-------------------------------------------------------| 
|------------------||-------------------------------------------------------| 
|------------------||------------------11-----------------------------------| 
|------------------||---------10-12-13----13-12h13p12-10h12p10-9-10-9----9--| 
|0-3h7p3-0-3h7p3-1-||10-12-13-----------------------------------------13----| 
 *       *       * 

|---------------------------------------------------------------------------| 
|---------------------------------------------------------------------------| 
|---------------------------------------------------------------------------| 
|---------------------------------------------------------------------------| 
|---------------------------------------------------------------------------| 
|13--12-13------------------------------------------------------------------| 


VERSE: 
(Play twice) 

|---------------------------------------------------------------------------| 
|---------------------------------------------------------------------------| 
|---------------------------------------------------------------------------| 
|---------------------------------------------------------------------------| 
|--------12-----------------------------------------------------------------| 
|000-0-0----15-13-12-000-0-0-000-0-0-000-0-0-10-12-13-000-0-0-000-0-0-000-0-| 
 *** * *             *** * * *** * * *** * *          *** * * *** * * *** * 

|---------------------------------------------------------------------------| 
|---------------------------------------------------------------------------| 
|---------------------------------------------------------------------------| 
|--12-----------------------------------------------------------------------| 
|-----15-13-12---------------------------10h12h13---------------------------| 
|0-------------000-0-0-000-0-0-000-0-0-0----------0-10h12h13-0-8h10h12------| 
 *             *** * * *** * * *** * * *          *          * 

PRE-CHORUS: 

|---------------------------------------------------------------------------| 
|---------------------------------------------------------------------------| 
|---------------------------------------------------------------------------| 
|-8-8-8-8-8-8-8-8-10-10-10-10-10\-------------------------------------------| 
|-8-8-8-8-8-8-8-8-10-10-10-10-10\-------------------------------------------| 
|-8-8-8-8-8-8-8-8-10-10-10-10-10\-------------------------------------------| 
  * * * * * * * * *  *  *  * 

CHORUS CHORDS: 
(Listen to song for changes in the chord) 

|---------------------------------------------------------------------------| 
|---------------------------------------------------------------------------| 
|---------------------------------------------------------------------------| 
|0-3-8-7-3-2-0-3-8-7-10-11--------------------------------------------------| 
|0-3-8-7-3-2-0-3-8-7-10-11--------------------------------------------------| 
|0-3-8-7-3-2-0-3-8-7-10-11--------------------------------------------------| 
                     *x *x 

FIRST SOLO: 
(I don't know the backing for this. Sorry!) 


|-----------------15b17-15h17h18p17p15--------------------------------------| 
|15b18r-15b18r-13----------------------18p17p15h17h18p17p15-----------------| 
|-----------------------------------------------------------17p15p14h15h17--| 
|---------------------------------------------------------------------------| 
|---------------------------------------------------------------------------| 
|---------------------------------------------------------------------------| 
|---------------------------------------------------------------------------| 

|----------------------------------------13h17p13----------------------13h16| 
|-------------------------------------15----------15----------------15------| 
|p15p14----------------------------14----------------14----------14---------| 
|-------17p15p14h15h17p15p14----15----------------------15----15------------| 
|----------------------------17----------------------------16---------------| 
|---------------------------------------------------------------------------| 

|p13----------------------13h17p13h17-t20p17p13h17-t20p17t20/22\20p17p13h17-| 
|----15----------------15---------------------------------------------------| 
|-------14----------14------------------------------------------------------| 
|----------15----15---------------------------------------------------------| 
|-------------17------------------------------------------------------------| 
|---------------------------------------------------------------------------| 

|t20p17t20-t20b22r-t20b22---------------------------------------------------| 
|---------------------------------------------------------------------------| 
|---------------------------------------------------------------------------| 
|---------------------------------------------------------------------------| 
|---------------------------------------------------------------------------| 
|---------------------------------------------------------------------------| 
                       v 

VERSE. PRECHORUS. 

(Before the second Chorus, there is a fast run.) 

|17p13----13----------------------------------------------------------------| 
|------15----15----15-------------------------------------------------------| 
|---------------14----14----14----------------------------------------------| 
|------------------------15----15-------------------------------------------| 
|---------------------------------17----------------------------------------| 
|---------------------------------------------------------------------------| 

CHORUS. 

Play the intro with the first section and the first ending ONLY ONCE. No second ending  
on it. 

BREAKDOWN: 

                         |PLAY THIS PART TWICE. 
|---------------------------------------------------------------------------| 
|---------------------------------------------------------------------------| 
|---------------------------------------------------------------------------| 
|------3-2-2-------5-3-3----------------------------------------------------| 
|1-0-1-3-2-2-1-0-1-5-3-3-------------------------------------------------5h7| 
|1-0-1-1-0-0-1-0-1-3-1-0----5---8---5---5h6p5-4-5-4-1-3-0----5---8---5------| 
|1-0-1-------1-0-1-------00---0---0---0-------------------00---0---0---0----| 
 * * *      * * *        **   *   *   *                   **   *   *   * 


|-----------------------------------------------|---------------------------| 
|-----------------------------------------------|---------------------------| 
|-----------------------------------------------|---------------------------| 
|p5---5-7-8-7-5---------------------------------|---------------------------| 
|---8--------------5---7---8---10---8-7h8p7----7|--5-7-8-7-5----------------| 
|---------------00---0---0---0----0---------10--|8-----------8-7------------| 
                **   *   *   *    *              x x x x x x x x 

(This is the harmony to the part after the powerchords and whatnot played on the second time) 


|---------------------------------------------------------------------------| 
|---------------------------------------------------------------------------| 
|---------------------------------------------------------------------------| 
|---------------------------------------------------8h10p8----8-10-12-10-8--| 
|---8---12---8---8h10p8-7-8-7-5-7-4----8---12---8----------12---------------| 
|00---0----0---0--------------------00---0----0---0-------------------------| 
 **   *    *   *                    **   *    *   * 


|----------------------------------------|----------------------------------| 
|----------------------------------------|----------------------------------| 
|----------------------------------------|----------------------------------| 
|----------------------------------------|----------------------------------| 
|---8---10---12---13---12---10h12p10-8-10|--8-10-12-10-8--------------------| 
|00---0----0----0----0----0--------------|8--------------8-7----------------| 
 **   *    *    *    *    *               x x x  x  x  x x x 
(Now both guitars) 

PLAY TWICE:                 THEN: LET RING 
|-------------------------------|-------------------------------------------| 
|-------------------------------|-------------------------------------------| 
|-------------------------------|-------------------------------------------| 
|00-00-0000-00-00-00-1-0-1-1-4-1|0------------1-----------------------------| 
|00-00-0000-00-00-00-1-0-1-1-4-1|0-pick-slide-1-----------------------------| 
|00-00-0000-00-00-00-1-0-1------|0------------1-----------------------------| 
 ** ** **** ** ** ** * * 

SOLO: 

|----------------------------------------------------------------13p12p11---| 
|---10----------------------------------------------------------------------| 
|12b14r-10-12----------------------------------------7-10-10b12r------------| 
|-------------12p11p10--------------7----7-10-7----7------------------------| 
|----------------------12-8-10-8-10---10--------10--------------------------| 
|---------------------------------------------------------------------------| 
                                                     x 

|---------------------------------------------------------------------------| 
|13p12p11h12h13p12p11------------------------------------------10h12h13-15--| 
|---------------------12p10p9h10h12p10p9---------------9h10h12--------------| 
|----------------------------------------12p10p9h10h12----------------------| 
|---------------------------------------------------------------------------| 
|---------------------------------------------------------------------------| 

|---13----17p15p13----------13-------------------13h16h17p16p13-------------| 
|17----17----------17-15-17-------15----------15----------------15----------| 
|------------------------------13----------14----------------------14-------| 
|---------------------------------------15----------------------------15----| 
|------------------------------------17----------------------------------17-| 
|---------------------------------------------------------------------------| 

|------------13h16h17p16p13-------------------------------------------------| 
|---------15----------------15----------15-17-18-20b22r-20b22---------------| 
|------14----------------------14-------------------------------------------| 
|---15----------------------------15----------------------------------------| 
|17----------------------------------17-------------------------------------| 
|---------------------------------------------------------------------------| 
                                        x  x               v 
CHORUS 

OUTRO: 

|---------------------------------------------------------------------------| 
|---------------------------------------------------------------------------| 
|---------------------------------------------------------------------------| 
|------------------------------------------------------------7htr-8wtr------| 
|---12---13---12---10---12---10h12p10-8-10----12---13---12------------------| 
|00----0----0----0----0----0---------------00----0----0----0------------00--| 
 **    *    *    *    *    *               **    *    *    *            ** 

|---------------------------------------------------------------------------| 
|---------------------------------------------------------------------------| 
|---------------------------------------------------------------------------| 
|-------------------10---10---12-------------------7h8p7-5-7-5---5---1-1-0-1| 
|12---12--13---13-------------------12---13---12---------------8---8-1-1-0-1| 
|---0----0---0----0----0----0----00----0----0----0-------------------1-1-0-1| 
    *    *   *    *    *    *    **    *    *    *                     * * * 

|---------------------------------------------------------------------------| 
|---------------------------------------------------------------------------| 
|3-(3)----------------------------------------------------------------------| 
|3-(3)0-1-0-----------------------------------------------------------------| 
|1 p0-0-1-0-----------------------------------------------------------------| 
|-----0-1-0-----------------------------------------------------------------| 
      *   * 
		  

See also:

tabs Guns N' Roses - Sweet Child o' mine tabs The Offspring - Come Out and Play tabs Guns N' Roses - Live and Let Die tabs Guns N' Roses - November Rain tabs Foo Fighters - Times Like These tabs Simon & Garfunkel - Sounds of silence
e-chords

Other versions:

tabs Black Veil Brides - Youth And Whisky
auto scroll beats size up size down change color hide chords drawings
tab show chords e-chords YouTube Clip e-chords hide all tabs e-chords go to top tab

share