Black Sabbath

home > Black Sabbath

Virtual death Tab

Black Sabbath

Difficulty: nolevelnolevel

by europeu

tuner correct add songbook print version text version save to e-mail
chordsukulelecavacokeyboardtabbassdrumsharmonicsflute Guitar Pro
chords

Virtual death

Year: 1994 - Album: Cross Purposes

  		e|----------------------------|-----------| 
B|----------------------------|-----------| 
G|----------------------------|-----------| 
D|----------------------------|-----------| 
A|----------------------------|-----------| 
E|-0-0----0----0--12-12-11~~~-|-0--0----0-| 
 
 
e|----------------------------|-----------------------------| 
B|----------------------------|-----------------------------| 
G|----------------------------|-----------------------------| 
D|----------------------------|-----------------------------| 
A|----------------------------|-----------------------------| 
E|-0-0----0----0--12-12-11~~~-|-0-0---0------0--0--3-4~~~---| 
 
 
Riff1:(full distortion) 
e|---------------------------|------------------------------| 
B|---------------------------|------------------------------| 
G|---------------------------|------------------------------| 
D|---------------------------|------------------------------| 
A|---------------------------|----------------7---5~~~------| 
E|-0-0---0---0--12-12-11~~~--|-0-0---0---5--7---7-----------| 
  Reach out and take from me , fruit of the poison tree 
 
 
e|----------------------------|-----------------------------| 
B|----------------------------|-----------------------------| 
G|----------------------------|-----------------------------| 
D|----------------------------|-----------------------------| 
A|----------------------------|-----------------------------| 
E|-0-0----0----0--12-12-11~~~-|-0-0---0------0--0--3-4~~~---| 
     Give me your body and your soul.. 
 
 
 
Riff2: 
e|-------------------|----------------------|------------------------------| 
B|-------------------|----------------------|------------------------------| 
G|-------------------|----------------------|------------------------------| 
D|-------------------|----------------------|------------------------------| 
A|-0--3-2-1-----1--1-|--------3-2-1----1--1-|-------3-2-1------------------| 
E|-------------------|-3-4-5----------------|-3-4-5-------6-5-4----4-3-2---| 
      I^m sick and..        you find..              its all I have to keep..  
 
 
 
Riff3: 
e|---------------------------------|-------------------------------------| 
B|---------------------------------|-------------------------------------| 
G|---------------------------------|-------------------------------------| 
D|---------------------------------|-------------------------------------| 
A|----2-2----1-------1-1----2-2----|----2-2------------------------------| 
E|-0------3------------------------|-0-------3-2--------2-2----3-3-------| 
 
 

	  

Search Paypal
auto scroll beats size up size down change color hide chords drawings
tab show chords e-chords YouTube Clip e-chords hide all tabs e-chords go to top tab