Black Sabbath

home > Black Sabbath

Symptom Of The Universe Tab

Black Sabbath

Difficulty: BeginnerBeginner

tuner correct add songbook print version text version save to e-mail
chordsukulelecavacokeyboardtabbassdrummharmonicsflute Guitar Pro
chords

Symptom Of The Universe

Year: 1990 - Album: The Best of Black Sabbath

  		Tune down 1 1/2 steps (C#)

To clear up any confusion, this song is played in the E position, 
but the guitar is tuned down 1/2 step, so the song is based in F#

|----------------------------------------------------------
|----------------------------------------------------------
|----------------------------------------------------------
|---------------3------------------3-2---------------------
|---------------1------------------1-0---------------------
|-0-0-0-0-0-0-0------0-0-0-0-0-0-0-------------------------
P.M.------------   P.M.-----------
|----------------------------------------------------------
|----------------------------------------------------------
|----------------------------------------------------------
|--7-------------------------------------------------------
|--5---------8-----------7---------------------------------
|------------6-----------5---------------------------------

|----------------------------------------------------------------
|----------------------------------------------------------------
|----------------------------------------------------------------
|---4-5-2-4---2-----2---------------4-5-2-4---2-----2------------
|-----------5---4-5---5-4-2-----------------5---4-5---5-4-2------
|-2-------------------------5-----2-------------------------5----

|--------------------------------------------------------------
|--------------------------------------------------------------
|--------------------------------------------------------------
|---------------------------1h2p1---2h4-4h5p4------------------
|-2--2-2-2-2-2--2-2-2-2-2h4-------2-----------5-2--2-2-2-2-2---
|--------------------------------------------------------------

|--------------------------------------------------------------
|--------------------------------------------------------------
|--4-----------------------------------------------------------
|--4--slowly move hand up fretboard, imitating a slideing sound
|--2-----------------------------------------------------------
|--------------------------------------------------------------

|---------------------------------------------------------------------------
|-----------2-------5-------4-------4-------------2-------5-------4-------4-
|-------------2---------------4---------------------2---------------4-------
|-------4-------4-------4-------4-------------4-------4-------4-------4-----
|---------------------------------------------------------------------------
|-1/2-----------------------------------1/2---------------------------------

|--4---4---------------------------------------------
|----7----5-7-5-4-5---4-5-2--------------------------
|-------------------6-------4---2-1---2---1----------
|---------------------------------------------4------
|----------------------------------------------------
|----------------------------------------------------

|----5---4-------5---4----------5---4------2--------------
|----------7-----------7--------------7--2---5-4-2--------
|--6---6-------6---6----------6---6----------------4p2----
|------------------------------------------------------4--
|---------------------------------------------------------
|---------------------------------------------------------

|----------------------------------------------------
|----------------------------------------------------
|--1h2p1---1---------1-2---1-2---1-2-1---1-----------
|--------4---2-4---4-----4-----4-------4---4-2-------
|----------------------------------------------4-----
|----------------------------------------------------

|----------------------------------------------------------------------
|----------------------------------------------------------------------
|------------1------------------------------------1--------/6-4-2-1----
|------1h2-4---4---2-1-2-4-2-4-4------------1h2-4---4--2-4----------4--
|--4------------------------------------4------------------------------
|----------------------------------------------------------------------

|------4-----4-5-454---4---------------------------
|----7---5-7---------7-----7-454-------------------
|--6---------------------6-------6-----------------
|--------------------------------------------------
|--------------------------------------------------
|--------------------------------------------------


_______________________________________________________
Contribuição: Victor Paim([email protected])
	  

Full key step upFull key step up
Half key step upHalf key step up
Half key step downHalf key step down
Full key step downFull key step down
Search Paypal
auto scroll beats size up size down change color hide chords drawings
tab show chords e-chords YouTube Clip e-chords hide all tabs e-chords go to top tab