Black Sabbath

home > Black Sabbath

Sabbath Bloody Sabbath Tab

Black Sabbath

Difficulty: BeginnerBeginner

tuner correct add songbook print version text version save to e-mail
chordsukulelecavacokeyboardtabbassdrumsharmonicsflute Guitar Pro
chords

Sabbath Bloody Sabbath

  		TABBED OUT BY [email protected]
=0D
   COMMENTS AND QUESTIONS ARE WELCOME.
=0D
   SOMEBODY SHOULD POST SOME OZZY.
=0D

   INTRO
   e--------------------------------------------------------------|
   B--------------------------------------------------------------|
   G--------------------------------------------------------------|
   D--4/6-------6-------4/6-------6------4-6--9--6--------6-----|
   A--2/4--4-4--4--4-4--2/4--4-4--4--6-7-2-4--7--4--4--4--4-----|
   E---------------------------------4-5--------------------------|
=0D
   FOR THE SLOW PART PLAY
   Am9-G THEN AT THE END PLAY D-A/D-D-A/D-D
=0D
       Am9     G      D    D/A
  e--|--12--|--10--|--2--|--0--|
  B--|--12--|--12--|--3--|--2--|
  G--|--12--|--12--|--2--|--2--|
  D--|--10--|--12--|--0--|--0--|
  A--|--12--|--10--|-----|-----|
  E--|------|------|-----|-----|
=0D

  SOLO
  e----------------------------------------------------------------|
  B----------------------------------------------------------------|
  G--14b16--14--12----14b16--14--12--------11--------14--11--------|
  D----------------14---------------14--14----14--12--------12--14-|
  A----------------------------------------------------------------|
  E----------------------------------------------------------------|
=0D
  e---------------------------------------------------------------------|=

  B---------------------------------15b17--15--12-----------------------|=

  G--14b16--12--14----14--12--14------------------14--16--14--12--------|=

  D----------------14------------14------------------------------14--14-|=

  A---------------------------------------------------------------------|=

  E---------------------------------------------------------------------|=

=0D
  e---------------------------------------------------------------------|=
 =

  B---------------------------------------------------------------------|=

  G--14b16--16--14--12----12--14b16--16--16--16--16--14--12-------------|=

  D--------------------14-----------------------------------14----------|=

  A---------------------------------------------------------------------|=

  E---------------------------------------------------------------------|=

=0D
  e------------------------------------------------|
  B--15b17--15--12---------------------------------|
  G-----------------14--16--14--12-----------------|
  D---------------------------------14--14---------|
  A------------------------------------------------|
  E------------------------------------------------|
=0D
  PLAYED AT 3:01
  e--------------------------------------------------------|
  B--------------------------------------------------------|
  G--7--7--5--7---7--5--7---5--4--5--4--5-----4--5--4------|
  D----------------------------------------7------------4--|
  A-----------------------------------------------------2--|
  E--------------------------------------------------------|
=0D
  HEAVEY PART AT 3:18
  e---------------------------------------------|
  B---------------------------------------------|
  G---------------------------------------------|
  D---------------------------------------------|
  A---------------------------------------------|
  E--0--0--3--2--3--2--3--0---0--3--2--3--4-----|
=0D
  PLAYED AT 5:06
  e---------------------------------------------|
  B---------------------------------------------|
  G---------------------------------------------|
  D--9--9--9---7---9--9--9---7--5--7--4---------|
  A--7--7--7---5---7--7--7---5--3--5--2---2/5---|
  E---------------------------------------------|
=0D
  OUTRO BIT
  e--------------------------------------|
  B--------------------------------------|
  G--------------------------------------|
  D--------------------------------------|
  A-----0--2--2--2p0-----2--2-----0------|
  E--2----------------2--------2---------|
=0D
  ANT REQUEST FOR SOME SABBATH SONGS. I CAN PLAY ALL THE
  SONGS OF "WE SOLD OUR SOUL FOR ROCK AND ROLL", BASS =

  TAB TO.=

--PART.BOUNDARY.0.487.emout04.mail.aol.com.819218729--
	  

Full key step upFull key step up
Half key step upHalf key step up
Half key step downHalf key step down
Full key step downFull key step down
Search Paypal
auto scroll beats size up size down change color hide chords drawings
tab show chords e-chords YouTube Clip e-chords hide all tabs e-chords go to top tab