Black Sabbath

home > Black Sabbath

Peace Of Mind Tab

Black Sabbath

Difficulty: ExpertExpert

by bombaXXX

tuner correct add songbook print version text version save to e-mail
chordsukulelecavacokeyboardtabbassdrumsharmonicsflute Guitar Pro
chords

Peace Of Mind

  		
tuning:  Eb Ab Db Gb Bb Eb 



TABBED BY andherembrace 





---------------------------------------------------------------| 
---------------------------------------------------------------| 
---------------------------------------------------------------| 
-7-9--9--9--12-------------------7-9--9--9--9------------------| 
-5/7--7--7--10\----------5-------5/7--7--7--7\----------5--5-7-| 
------------------0--0-0-3--0-0------------------0--0-0-3--3/5-| 
       ~  ~       *  * *    * *        ~  ~      *  * * 

-----------------------------------------------| 
-----------------------------------------------| 
-----------------------------------------------| 
-7-9--9--9--12------------------5-----4--7-----| 
-5/7--7--7--10\----------5------3-----2--5-----| 
------------------0--0-0-3--0-0----------------| 
       ~  ~       *  * *    * * 


---------------------------------------------------------------| 
---------------------------------------------------------------| 
---------------------------------------------------------------| 
-7-9--9--9--12-------------------7-9--9--9--9------------------| 
-5/7--7--7--10\----------5-------5/7--7--7--7\----------5--5-7-| 
------------------0--0-0-3--0-0------------------0--0-0-3--3/5-| 
       ~  ~       *  * *    * *        ~  ~      *  * * 

-----------------------------------------------| 
-----------------------------------------------| 
-----------------------------------------------| 
-7-9--9--9--12------------------5-----4--7-----| 
-5/7--7--7--10\----------5------3-----2--5-----| 
------------------0--0-0-3--0-0----------------| 
       ~  ~       *  * *    * * 




0:29 

---------------------------------------------------------------| 
---------------------------------------------------------------| 
---------------------------------------------------------------| 
-7-9--9--9--12-------------------7-9--9--9--9------------------| 
-5/7--7--7--10\----------5-------5/7--7--7--7\----------5--5-7-| 
------------------0--0-0-3--0-0------------------0--0-0-3--3/5-| 
       ~  ~       *  * *    * *        ~  ~      *  * * 

---------------------------------------------------------------| 
---------------------------------------------------------------| 
---------------------------------------------------------------| 
-7-9--9--9--12-------------------7-9--9--9--9------------------| 
-5/7--7--7--10\----------5-------5/7--7--7--7\----------5--5-7-| 
------------------0--0-0-3--0-0------------------0--0-0-3--3/5-| 
       ~  ~       *  * *    * *        ~  ~      *  * * 

---------------------------------------------------------------| 
---------------------------------------------------------------| 
---------------------------------------------------------------| 
-7-9--9--9--12-------------------7-9--9--9--9------------------| 
-5/7--7--7--10\----------5-------5/7--7--7--7\----------5--5-7-| 
------------------0--0-0-3--0-0------------------0--0-0-3--3/5-| 
       ~  ~       *  * *    * *        ~  ~      *  * * 

-----------------------------------------------| 
-----------------------------------------------| 
-----------------------------------------------| 
-7-9--9--9--12------------------5-----4--7-----| 
-5/7--7--7--10\----------5------3-----2--5-----| 
------------------0--0-0-3--0-0----------------| 
       ~  ~       *  * *    * * 


---------------------------------------------------------------| 
---------------------------------------------------------------| 
---------------------------------------------------------------| 
-7-9--9--9--12-------------------7-9--9--9--9------------------| 
-5/7--7--7--10\----------5-------5/7--7--7--7\----------5--5-7-| 
------------------0--0-0-3--0-0------------------0--0-0-3--3/5-| 
       ~  ~       *  * *    * *        ~  ~      *  * * 

-----------------------------------------------------| 
-----------------------------------------------------| 
-----------------------------------------------------| 
-7-9--9--9--12------------------5---5---9-8-7---7----| 
-5/7--7--7--10\----------5------3---3-0-7\6-5---5----| 
------------------0--0-0-3--0-0----------------------| 
       ~  ~       *  * *    * * 




1:12 

---------------------------------------------------------------| 
---------------------------------------------------------------| 
---------------------------------------------------------------| 
-7-9--9--9--12-------------------7-9--9--9--9------------------| 
-5/7--7--7--10\----------5-------5/7--7--7--7\----------5--5-7-| 
------------------0--0-0-3--0-0------------------0--0-0-3--3/5-| 
       ~  ~       *  * *    * *        ~  ~      *  * * 

---------------------------------------------------------------| 
---------------------------------------------------------------| 
---------------------------------------------------------------| 
-7-9--9--9--12-------------------7-9--9--9--9------------------| 
-5/7--7--7--10\----------5-------5/7--7--7--7\----------5--5-7-| 
------------------0--0-0-3--0-0------------------0--0-0-3--3/5-| 
       ~  ~       *  * *    * *        ~  ~      *  * * 

---------------------------------------------------------------| 
---------------------------------------------------------------| 
---------------------------------------------------------------| 
-7-9--9--9--12-------------------7-9--9--9--9------------------| 
-5/7--7--7--10\----------5-------5/7--7--7--7\----------5--5-7-| 
------------------0--0-0-3--0-0------------------0--0-0-3--3/5-| 
       ~  ~       *  * *    * *        ~  ~      *  * * 

-----------------------------------------------| 
-----------------------------------------------| 
-----------------------------------------------| 
-7-9--9--9--12------------------5-------4--7---| 
-5/7--7--7--10\----------5------3-----3-2--5---| 
------------------0--0-0-3--0-0----------------| 
       ~  ~       *  * *    * *  ~ 



1:41 


--------------------------------------------------------------------| 
--------------------------------------------------------------------| 
--------------------------------------------------------------------| 
-5--4-----4--3----5--4-----4--3----5--4-----4--3----5--4--3---------| 
-3--2--5--2--1----3--2--5--2--1----3--2--5--2--1----3--2--1-5--4--3-| 
-------3-------1--------3-------1--------3-------1----------3--2--1-| 



1:55 

-------------------------------------------------------| 
-------------------------------------------------------| 
-------------------------------------------------------| 
-------------------------------------------------------| 
-2------2-3-3--------3-2----2------2-3-3--------3-5----| 
-0--0-0-----1----1-1-----3--0--0-0-----1----1-1-1-3----| 


------------------------------------------------------------| 
------------------------------------------------------------| 
------------------------------------------------------------| 
------------------------------------------------------------| 
-2------2-3-3--------3-2----2------2-3-3-------------3-5----| 
-0--0-0-----1----1-1-----3--0--0-0-----1-------------1-3----| 





2:11 

--------------------------------------------------------------------| 
--------------------------------------------------------------------| 
-9------9-----9---9-----9-----9--10-----10----10---9-----9---7-7-9--| 
-7------7-----7---7-----7-----7---7------7-----7---7-----7---5-5/7--| 
---0-0----0-0---0---0-0---0-0---0---0-0----0-0---0---0-0---0--------| 
--------------------------------------------------------------------| 
   * *    * *   *   * *   * *   *   * *    * *   *   * *   * 

---------------------------------------------------------------------| 
-------------------------------------------------------_-------------| 
-9------9-----9---9-----9-----9--10-----10----10------/ \------------| 
-7------7-----7---7-----7-----7---7------7-----7-----5-7-5---5-7-----| 
---0-0----0-0---0---0-0---0-0---0---0-0----0-0---00--3/5\3-0-3/5-5-7-| 
-----------------------------------------------------------------3/5-| 
   * *    * *   *   * *   * *   *   * *    * *   **    


--------------------------------------------------------------------| 
--------------------------------------------------------------------| 
-9------9-----9---9-----9-----9--10-----10----10---9-----9---7-7-9--| 
-7------7-----7---7-----7-----7---7------7-----7---7-----7---5-5/7--| 
---0-0----0-0---0---0-0---0-0---0---0-0----0-0---0---0-0---0--------| 
--------------------------------------------------------------------| 
   * *    * *   *   * *   * *   *   * *    * *   *   * *   * 

--------------------------------------------------------------------| 
--------------------------------------------------------------------| 
-9------9-----9---9-----9-----9--10-----10----10---9-----9-----9----| 
-7------7-----7---7-----7-----7---7------7-----7---7-----7-----7\---| 
---0-0----0-0---0---0-0---0-0---0---0-0----0-0---0---0-0---0-0----0-| 
--------------------------------------------------------------------| 
   * *    * *   *   * *   * *   *   * *    * *   *   * *   * *    * 




2:38 

--------0-------------------------0-------------| 
------0-----------0-------------0-----0---------| 
------------------------------5----------5------| 
---10---------10----10\9----7---------------7---| 
/8---------8--------------0---------------------| 
------------------------------------------------| 


--------0-------------------------0-------------| 
------0-----------0-------------0-----0---------| 
------------------------------5----------5------| 
---10---------10----10\9----7---------------7---| 
/8---------8--------------0---------------------| 
------------------------------------------------| 

--------0-------------------------0-------------| 
------0-----------0-------------0-----0---------| 
------------------------------5----------5------| 
---10---------10----10\9----7---------------7---| 
/8---------8--------------0---------------------| 
------------------------------------------------| 


--------0---------------------------------------------| 
------0-----------0-----------------------------------| 
------------------------------------------------------| 
---10---------10----10\9--9-9-9-9-9-9-9-9-9-9-9-9-9-5-| 
/8---------8--------------7-7-7-7-7-7-7-7-7-7-7-7-7-3-| 
------------------------------------------------------| 
                                                     ~ 



-------------------------------| 
---------------_---------------| 
--------------/ \--------------| 
-2--5--7--7--7-8-7-5--2--5--7--| 
-0--3--5--5--5/6\5-3--0--3--5--| 
-------------------------------| 


---------------------------------------------------| 
---------------_-----------------------------------| 
--------------/ \----------------------------------| 
-2--5--7--7--7-8-7-5--2--5--7----------------------| 
-0--3--5--5--5/6\5-3--0--3--5--------------------\-| 
---------------------------------------------------| 
                             ~~~~~~~~~~~~~~~~~~~~ 
	  

Search Paypal
auto scroll beats size up size down change color hide chords drawings
tab show chords e-chords YouTube Clip e-chords hide all tabs e-chords go to top tab