Black Sabbath

home > Black Sabbath

Paranoid (intro. legal) Tab

Black Sabbath

Difficulty: ExpertExpert

by oieu

tuner correct add songbook print version text version save to e-mail
chordsukulelecavacokeyboardtabbassdrumsharmonicsflute Guitar Pro
chords

Paranoid (intro. legal)

  		-------------------------------- 
-------------------------------- 
------------0-2-----0-2--------- 
--------0-2-----0-2------------- 
--0-0-0------------------------- 
faz isso 4X 
 
-------------------------------- 
-------------------------------- 
-0-0-0-0-0------------0-0------- 
----------2-2-2--0-0-0----0-2-0- 
-------------------------------- 
 
-------------------------------- 
-------------------------------- 
-0-0-0-0-0------------0-0------- 
----------2-2-2--0-0-0----0-2-0- 
-------------------------------- 

	  

Search Paypal
auto scroll beats size up size down change color hide chords drawings
tab show chords e-chords YouTube Clip e-chords hide all tabs e-chords go to top tab