Black Sabbath

home > Black Sabbath

Paranoid Guitar (Solo) Tab

Black Sabbath

Difficulty: BeginnerBeginner

by shawn+dixon

tuner correct add songbook print version text version save to e-mail
chordsukulelecavacokeyboardtabbassdrumsharmonicsflute Guitar Pro
chords

Paranoid Guitar (Solo)

  		  

E ---------------------------------------------------- 
B ---------------------------------------------------- 
G --12^------------------------------------------------ 
D -----12-14--14-12-14-12------------------------------ 
A ------------------------14--12-14-12-14-------------- 
E ----------------------------------------10-12-------- 


E -----------------------------------12^-12^-------------- 
B -----------------------------12-15---------15-12------ 
G -------------12-14-14--12-14--------------------14---- 
D -------12-14----------------------------------------- 
A -12-14----------------------------------------------- 
E ---------------------------------------------------- 


E -------------------------12-15-15-15-12---------- 
B -------12-15-12-15-12-15---------------15-------- 
G -12-14-------------------------------------------- 
D -------------------------------------------------- 
A -------------------------------------------------- 
E -------------------------------------------------- 


E -15-12-15-12-15-12----------------------------- 
B ------------------15-12------------------------ 
G -----------------------14-12-14^-14^-12------- 
D ---------------------------------------------- 
A ---------------------------------------------- 
E ---------------------------------------------- 

E ---------------------------------------------------- 
B --------------------------------------------------- 
G ---------------------------------------------12---- 
D -14^-12-14-14-12-14-12------------------12-14--14-12- 
A ----------------------14-12--------12-14------------ 
E ---------------------------15-12-15----------------- 
	  

Search Paypal
auto scroll beats size up size down change color hide chords drawings
tab show chords e-chords YouTube Clip e-chords hide all tabs e-chords go to top tab