Black Sabbath

home > Black Sabbath

Laguna Sunrise Tab

Black Sabbath

Difficulty: BeginnerBeginner

by Acelot

tuner correct add songbook print version text version save to e-mail
chordsukulelecavacokeyboardtabbassdrumsharmonicsflute Guitar Pro
chords

Laguna Sunrise

  		
A
 GUIT 1  
 e||----------------------------------|------------------------------------| 
 B||----------------------------------|---------------------------------0--| 
 G||o---------------------------------|-----------------------------0-2----| 
 D||o-----2/4-5-4\2-4================-|-----------------2/4-5-4\2-4--------| 
 A||----------------------------------|------------------------------------| 
 E||----------------------------------|------------------------------------| 

 GUIT 2                                                                      | 
    ||   D   {up&down "drag" strum}                                             
 e||--------2---2=======--------------|---------2---2=======---------------| 
 B||--------3---3=======--------------|---------3---3=======---------------| 
 G||o-------2---2=======--------------|---------2---2=======---------------| 
 D||o--0================------0-------|---0=================------0--------| 
 A||-----------------------0-----0----|-----------------------0-------0----| 
 E||----------------------------------|------------------------------------| 

   
   

 e|--------------------------------------|------------------------------------| 
 B|----(0h)1-----------------------------|------------------------------------| 
 G|----------------2---2=================|===2====----------------------------| 
 D|--------------------------------------|------------------------------------| 
 A|--------------------------------------|------------------------------------| 
 E|--------------------------------------|------------------------------------| 
   
                                                                            | 
        Dm7                                                                    | 
 e|------------5---5=======--------------|---------5---5======----------------| 
 B|------------6---6=======--------------|---------6---6======----------------| 
 G|------------5---5=======--------------|---------5---5======----------------| 
 D|--------3===============------3-------|---3================-------0--------| 
 A|---------------------------0-----0----|-----------------------0-------0----| 
 E|--------------------------------------|------------------------------------| 
     
   
 e|--------------------------------------|------------------------------------| 
 B|--------------------------------------|---------------------------------0--| 
 G|--------------------------------------|-----------------------------0-2----| 
 D|----------2/4-5-4\2-4================-|-----------------2/4-5-4\2-4--------| 
 A|--------------------------------------|------------------------------------| 
 E|--------------------------------------|------------------------------------| 
  
                                                                            | 
             D                                                                      | 
 e|------------2---2=======--------------|---------2---2======----------------| 
 B|------------3---3=======--------------|---------3---3======----------------| 
 G|------------2---2=======--------------|---------2---2======----------------| 
 D|-------0================------0-------|---0================-------0--------| 
 A|---------------------------0-----0----|-----------------------0-------0----| 
 E|--------------------------------------|------------------------------------| 
       
   
 e|--------------------------------------|------------------------------------| 
 B|----(0h)1-----------------------------|------------------------------------| 
 G|----------------2---2=================|===2====----------------------------| 
 D|--------------------------------------|------------------------------------| 
 A|--------------------------------------|------------------------------------| 
 E|--------------------------------------|------------------------------------| 
 
                                                           
        Dm7                                                             G5        | 
 e|------------5---5=======--------------|---------5---5==========------------| 
 B|------------6---6=======--------------|---------6---6==========-----3\-----| 
 G|------------5---5=======--------------|---------5---5==========-----0-\----| 
 D|--------3===============------3-------|---3====================-----5\-----| 
 A|---------------------------0-----0----|-------------------------------\----| 
 E|--------------------------------------|------------------------------------| 
   
   
 
 e|-------------------------------------|------------------------------------|| 
 B|--------2h3--2p0-----2==============-|--------2h3--2p0-----2=============-|| 
 G|-------------------------------------|-----------------------------------o|| 
 D|-------------------------------------|-----------------------------------o|| 
 A|-------------------------------------|------------------------------------|| 
 E|-------------------------------------|------------------------------------|| 
 
                                                                           
    Asus2                       G5               Asus2                              || 
 e|-------------------------------------|------------------------------------|| 
 B|---0=================0------3\-------|---0=================0=====---------|| 
 G|---2=================2------0-\------|---2=================2=====--------o|| 
 D|---2======---2=======2------5\-------|---2======---2=======2=====---*----o|| 
 A|---------0===========0--------\------|---------0===========0=====---0-----|| 
 E|-------------------------------------|------------------------------------|| 
     
    C                                       Am   
 e||------0---3---1--0h1p0-----0--------|-------------------------------------| 
 B||--1--------------------3-------3-1--|--0-------0h1p0------0---------------| 
 G||------------------------------------|------2----------2-------2=========--| 
 D||------------------------------------|-------------------------------------| 
 A||------------------------------------|-------------------------------------| 
 E||------------------------------------|-------------------------------------| 
    
   
   G                                                        
 e|-------------------------------|------------------------|-----------------|| 
 B|--3--1-0h1p0-----3--1-0h1p0----|------------------------|-----------------|| 
 G|--------------2--------------2-|--0------0----------0h2-h-3=============-o|| 
 D|-------------------------------|------------------------|----------------o|| 
 A|-------------------------------|------------------------|------GUIT2:--0--|| 
 E|-------------------------------|------------------------|-----------------|| 
  
	  

Search Paypal
auto scroll beats size up size down change color hide chords drawings
tab show chords e-chords YouTube Clip e-chords hide all tabs e-chords go to top tab