Black Sabbath

home > Black Sabbath

End Of The Beginning Tab

Black Sabbath

Difficulty: ExpertExpert

by victborges

tuner correct add songbook print version text version save to e-mail
chordsukulelecavacokeyboardtabbassdrumsharmonicsflute Guitar Pro
chords

End Of The Beginning

  		

Tuning: Eb Ab Db Gb Bb Eb 




------------------------------------------| 
------------------------------------------| 
------------------------------------------| 
-------6----7--------------6----5---------| 
-4-----4----5----5----4----4----3----5----| 
-2---------------3----2--------------3----| 
             ~                   ~     
------------------------------------------| 
------------------------------------------| 
------------------------------------------| 
-------6----7--------------6----5---------| 
-4-----4----5----5----4----4----3----5----| 
-2---------------3----2--------------3----| 
             ~                   ~     
------------------------------------------| 
------------------------------------------| 
------------------------------------------| 
-------6----7--------------6----5---------| 
-4-----4----5----5----4----4----3----5----| 
-2---------------3----2--------------3----| 
             ~                   ~     
------------------------------------------| 
------------------------------------------| 
------------------------------------------| 
-------6----7--------------6----5---------| 
-4-----4----5----5----4----4----3----5----| 
-2---------------3----2--------------3----| 
             ~                   ~     


semi clean 
--------------------------| 
--------------------------| 
--------------------------| 
--------------------------| 
------4----5~-------------| 
-2-------------3----2-----| 





0:51 

------------------------------------------| 
------------------------------------------| 
------------------------------------------| 
-------6----7--------------6----5---------| 
-4-----4----5----5----4----4----3----5----| 
-2---------------3----2--------------3----| 
             ~                   ~     
------------------------------------------| 
------------------------------------------| 
------------------------------------------| 
-------6----7--------------6----5---------| 
-4-----4----5----5----4----4----3----5----| 
-2---------------3----2--------------3----| 
             ~                   ~     
------------------------------------------| 
------------------------------------------| 
------------------------------------------| 
-------6----7--------------6----5---------| 
-4-----4----5----5----4----4----3----5----| 
-2---------------3----2--------------3----| 
             ~                   ~     
------------------------------------------| 
------------------------------------------| 
------------------------------------------| 
-------6----7--------------6----5---------| 
-4-----4----5----5----4----4----3----5----| 
-2---------------3----2--------------3----| 
             ~                   ~     






1:35 

semi clean 

-------------------------------------------| 
-------------------------------------------| 
-------------------------------------------| 
-------------------------------------------| 
------4----5~-------------4----3~----------| 
-2--------------3----2--------------3------| 


-------------------------------------------| 
-------------------------------------------| 
-------------------------------------------| 
-------------------------------------------| 
------4----5~-------------4----3~----------| 
-2--------------3----2--------------3------| 


-------------------------------------------| 
-------------------------------------------| 
-------------------------------------------| 
-------------------------------------------| 
------4----5~-------------4----3~----------| 
-2--------------3----2--------------3------| 


-------------------------------------------| 
-------------------------------------------| 
-------------------------------------------| 
-------------------------------------------| 
------4----5~-------------4----3~----------| 
-2--------------3----2--------------3------| 


-------------------------------------------| 
-------------------------------------------| 
-------------------------------------------| 
-------------------------------------------| 
------4----5~-------------4----3~----------| 
-2--------------3----2--------------3------| 


-------------------------------------------| 
-------------------------------------------| 
-------------------------------------------| 
-------------------------------------------| 
------4----5~-------------4----3~----------| 
-2--------------3----2--------------3------| 








2:41 


------------------------------------------| 
------------------------------------------| 
------------------------------------------| 
-------6----7--------------6----5---------| 
-4-----4----5----5----4----4----3----5----| 
-2---------------3----2--------------3----| 
             ~                   ~     
------------------------------------------| 
------------------------------------------| 
------------------------------------------| 
-------6----7--------------6----5---------| 
-4-----4----5----5----4----4----3----5----| 
-2---------------3----2--------------3----| 
             ~                   ~     
------------------------------------------| 
------------------------------------------| 
------------------------------------------| 
-------6----7--------------6----5---------| 
-4-----4----5----5----4----4----3----5----| 
-2---------------3----2--------------3----| 
             ~                   ~     
----------------------------------------------| 
----------------------------------------------| 
----------------------------------------------| 
-------6----7--------------6----5-------------| 
-4-----4----5----5----4----4----3----5----4---| 
-2---------------3----2--------------3----2---| 
             ~                   ~     







3:30 


------------------------------------------------| 
------------------------------------------------| 
----------------------------------_-----_-------| 
---------------------------------/ \---/ \------| 
--------------------------------4-3-2-0-2-0-----| 
-2-2--4-2-5~~-2-4-2-5~~-2-4--2------------------| 
 * *    *     *   *     *    * 

------------------------------------------------| 
---------------------------------_--------------| 
--------------------------------/ \----_--------| 
-------------------------------4-5-4--/ \-------| 
-------------------------------2/3\2-0-2-0------| 
-2-2--4-2-5~~-2-4-2-5~~-2-4-0-------------------| 
 * *    *     *   *     *     


------------------------------------------------| 
------------------------------------------------| 
----------------------------------_-----_-------| 
---------------------------------/ \---/ \------| 
--------------------------------4-3-2-0-2-0-----| 
-2-2--4-2-5~~-2-4-2-5~~-2-4--2------------------| 
 * *    *     *   *     *    * 

------------------------------------------------| 
---------------------------------_--------------| 
--------------------------------/ \----_--------| 
-------------------------------4-5-4--/ \-------| 
-------------------------------2/3\2-0-2-0------| 
-2-2--4-2-5~~-2-4-2-5~~-2-4-0-------------------| 
 * *    *     *   *     *     


------------------------------------------------| 
------------------------------------------------| 
----------------------------------_-----_-------| 
---------------------------------/ \---/ \------| 
--------------------------------4-3-2-0-2-0-----| 
-2-2--4-2-5~~-2-4-2-5~~-2-4--2------------------| 
 * *    *     *   *     *    * 

------------------------------------------------| 
---------------------------------_--------------| 
--------------------------------/ \----_--------| 
-------------------------------4-5-4--/ \-------| 
-------------------------------2/3\2-0-2-0------| 
-2-2--4-2-5~~-2-4-2-5~~-2-4-0-------------------| 
 * *    *     *   *     *     



------------------------------------------------| 
------------------------------------------------| 
----------------------------------_-----_-------| 
---------------------------------/ \---/ \------| 
--------------------------------4-3-2-0-2-0-----| 
-2-2--4-2-5~~-2-4-2-5~~-2-4--2------------------| 
 * *    *     *   *     *    * 

------------------------------------------------| 
---------------------------------_--------------| 
--------------------------------/ \----_--------| 
-------------------------------4-5-4--/ \-------| 
-------------------------------2/3\2-0-2-0------| 
-2-2--4-2-5~~-2-4-2-5~~-2-4-0-------------------| 
 * *    *     *   *     *     



------------------------------------------------| 
------------------------------------------------| 
----------------------------------_-----_-------| 
---------------------------------/ \---/ \------| 
--------------------------------4-3-2-0-2-0-----| 
-2-2--4-2-5~~-2-4-2-5~~-2-4--2------------------| 
 * *    *     *   *     *    * 

------------------------------------------------| 
---------------------------------_--------------| 
--------------------------------/ \----_--------| 
-------------------------------4-5-4--/ \-------| 
-------------------------------2/3\2-0-2-0------| 
-2-2--4-2-5~~-2-4-2-5~~-2-4-0-------------------| 
 * *    *     *   *     *     


------------------------------------------------| 
------------------------------------------------| 
----------------------------------_-----_-------| 
---------------------------------/ \---/ \------| 
--------------------------------4-3-2-0-2-0-----| 
-2-2--4-2-5~~-2-4-2-5~~-2-4--2------------------| 
 * *    *     *   *     *    * 

------------------------------------------------| 
---------------------------------_--------------| 
--------------------------------/ \----_--------| 
-------------------------------4-5-4--/ \-------| 
-------------------------------2/3\2-0-2-0------| 
-2-2--4-2-5~~-2-4-2-5~~-2-4-0-------------------| 
 * *    *     *   *     *     








-------------------------------------------------| 
-------------------------------------------------| 
-5--5-------7--7--------9---9-------7--7---------| 
-7--7-------9--9-------10--10-------9--9---------| 
------0-0-0------0-0-0--------0-0-0------0-0-0---| 
-------------------------------------------------| 
  |  |* * *  |  |* * *   |   |* * *  |  |* * * 

-------------------------------------------------| 
-------------------------------------------------| 
-5--5-------7--7--------9---9-------7--7---------| 
-7--7-------9--9-------10--10-------9--9---------| 
------0-0-0------0-0-0--------0-0-0------0-0-0---| 
-------------------------------------------------| 
  |  |* * *  |  |* * *   |   |* * *  |  |* * * 

-------------------------------------------------| 
-------------------------------------------------| 
-5--5-------7--7--------9---9-------7--7---------| 
-7--7-------9--9-------10--10-------9--9---------| 
------0-0-0------0-0-0--------0-0-0------0-0-0---| 
-------------------------------------------------| 
  |  |* * *  |  |* * *   |   |* * *  |  |* * * 

-------------------------------------------------| 
-------------------------------------------------| 
-5--5-------7--7--------9---9-------7--7---------| 
-7--7-------9--9-------10--10-------9--9---------| 
------0-0-0------0-0-0--------0-0-0------0-0-0---| 
-------------------------------------------------| 
  |  |* * *  |  |* * *   |   |* * *  |  |* * * 







4:32 


------------------------------------------| 
------------------------------------------| 
------------------------------------------| 
-4-----2-------6--7--6--2-4---------------| 
-2-----0-5-----4--5--4\-0-2-----2-2--0-0--| 
---------3--------------------------------| 

------------------------------------------| 
------------------------------------------| 
------------------------------------------| 
-4----2--------6--7--9--2-4---------------| 
-2----0-5------4--5--7\-0-2-----2-2--0-0--| 
--------3---------------------------------| 


------------------------------------------| 
------------------------------------------| 
------------------------------------------| 
-4-----2-------6--7--6--2-4---------------| 
-2-----0-5-----4--5--4\-0-2-----2-2--0-0--| 
---------3--------------------------------| 

------------------------------------------| 
------------------------------------------| 
------------------------------------------| 
-4----2--------6--7--9--2-4---------------| 
-2----0-5------4--5--7\-0-2-----2-2--0-0--| 
--------3---------------------------------| 


------------------------------------------| 
------------------------------------------| 
------------------------------------------| 
-4-----2-------6--7--6--2-4---------------| 
-2-----0-5-----4--5--4\-0-2-----2-2--0-0--| 
---------3--------------------------------| 

------------------------------------------| 
------------------------------------------| 
------------------------------------------| 
-4----2--------6--7--9--2-4---------------| 
-2----0-5------4--5--7\-0-2-----2-2--0-0--| 
--------3---------------------------------| 


------------------------------------------| 
------------------------------------------| 
------------------------------------------| 
-4-----2-------6--7--6--2-4---------------| 
-2-----0-5-----4--5--4\-0-2-----2-2--0-0--| 
---------3--------------------------------| 

------------------------------------------| 
------------------------------------------| 
------------------------------------------| 
-4----2--------6--7--9--2-4---------------| 
-2----0-5------4--5--7\-0-2---5--7--------| 
--------3---------------------3--5--------| 







5:17 


------------------------------------------------| 
------------------------------------------------| 
----------------------------------_-----_-------| 
---------------------------------/ \---/ \------| 
--------------------------------4-3-2-0-2-0-----| 
-2-2--4-2-5~~-2-4-2-5~~-2-4--2------------------| 
 * *    *     *   *     *    * 
------------------------------------------------| 
---------------------------------_--------------| 
--------------------------------/ \----_--------| 
-------------------------------4-5-4--/ \-------| 
-------------------------------2/3\2-0-2-0------| 
-2-2--4-2-5~~-2-4-2-5~~-2-4-0-------------------| 
 * *    *     *   *     *     

------------------------------------------------| 
------------------------------------------------| 
----------------------------------_-----_-------| 
---------------------------------/ \---/ \------| 
--------------------------------4-3-2-0-2-0-----| 
-2-2--4-2-5~~-2-4-2-5~~-2-4--2------------------| 
 * *    *     *   *     *    * 
------------------------------------------------| 
---------------------------------_--------------| 
--------------------------------/ \----_--------| 
-------------------------------4-5-4--/ \-------| 
-------------------------------2/3\2-0-2-0------| 
-2-2--4-2-5~~-2-4-2-5~~-2-4-0-------------------| 
 * *    *     *   *     *     





5:33 


solo 

w/wah throughout 


---)----)----)----)----)----)----)~~~---)~~~-14--------------------------| 
-14---14---14---14---14---14---14-----17-------17-14--14-----------------| 
-16---16---16---16---16---16---16-------------------17--17-16-14---16-14~| 
----------------------------------------------------------------16-------| 
-------------------------------------------------------------------------| 
-------------------------------------------------------------------------| 
         



5:40 

   _______               _____       ___ 
   )   | (              /     \     /   \ 
-17---17---17~~--14---14-17-14----141714------)~~~~----| 
-------------------17----------17--------17-17---------| 
-------------------------------------------------------| 
-------------------------------------------------------| 
-------------------------------------------------------| 
-------------------------------------------------------| 



5:44 

14-------------------------------------------------------| 
---17-14----14-17----14----------------14-17----14-------| 
---------17-------16----17-16-14~~--17-------16----14~~--| 
---------------------------------------------------------| 
---------------------------------------------------------| 
---------------------------------------------------------| 



5:48 

--------------------------------------------------------------__------| 
-----17-19----17-19-17-17-19----17-19----17-14---------------/  \-----| 
-/18-------18----------------18-------18-------17-14----16-14-16-14~~-| 
-----------------------------------------------------16---------------| 
----------------------------------------------------------------------| 
----------------------------------------------------------------------| 
                      | 



5:52 
           2 step                             
           _______                         /\       /\      /\      /\ 
-----------)-----(^-----)---)~~~~~-14----141714---141714--141714--141714--| 
------19-19--------17-17--17----------17-------17-------17------17------17| 
18-18---------------------------------------------------------------------| 
--------------------------------------------------------------------------| 
--------------------------------------------------------------------------| 
--------------------------------------------------------------------------| 
   __ 
  /  \       /\ 
14-17-14---141714-----14---)~~~-14--------------| 
--------17-------17-17---17-------17-14--14-----| 
---------------------------------------17--17---| 
------------------------------------------------| 
------------------------------------------------| 
------------------------------------------------| 
       

6:00                                              

------------------------------------------------| 
---)---------------)---)---)---)---)---)~~~~----| 
-16--16--14--16--16--16--16--16--16--16---------| 
------------------------------------------------| 
------------------------------------------------| 
------------------------------------------------| 
    |   |   |  |   |   |   |   |   | 



6:05 

--------------------------------------------------| 
------------------------------------)----(^-------| 
-/11~~~-------7---9---9~~~----7--9-9-------7------| 
---------------------------------------------9~~--| 
--------------------------------------------------| 
--------------------------------------------------| 
                |   | 


6:13 

---)----)~--------------------------------------| 
-10---10----10-7-10--------10-7-----------------| 
--------------------------------9-7-----7-------| 
------------------------------------9-7---9~----| 
------------------------------------------------| 
------------------------------------------------| 
    | 





-------------------------------0----------------------| 
-------4-----------2--------------0-------------------| 
----------4-----------2-----4-------------------------| 
----4-----------2--------2-----------5-5-5-5-5--7-----| 
-2-----------0-----------------------3-3-3-3-3--5--0--| 
------------------------------------------------------| 

-------------------------------0----------------------| 
-------4-----------2--------------0-------------------| 
----------4-----------2-----4-------------------------| 
----4-----------2--------2-----------5-5-5-5-5--7-----| 
-2-----------0-----------------------3-3-3-3-3--5--0--| 
------------------------------------------------------| 

-------------------------------0----------------------| 
-------4-----------2--------------0-------------------| 
----------4-----------2-----4-------------------------| 
----4-----------2--------2-----------5-5-5-5-5--7-----| 
-2-----------0-----------------------3-3-3-3-3--5--0--| 
------------------------------------------------------| 

-------------------------------0----------------------| 
-------4-----------2--------------0-------------------| 
----------4-----------2-----4-------------------------| 
----4-----------2--------2-----------5-5-5-5-5--7-----| 
-2-----------0-----------------------3-3-3-3-3--5--0--| 
------------------------------------------------------| 

-------------------------------0----------------------| 
-------4-----------2--------------0-------------------| 
----------4-----------2-----4-------------------------| 
----4-----------2--------2-----------5-5-5-5-5--7-----| 
-2-----------0-----------------------3-3-3-3-3--5--0--| 
------------------------------------------------------| 

-------------------------------0----------------------| 
-------4-----------2--------------0-------------------| 
----------4-----------2-----4-------------------------| 
----4-----------2--------2-----------5-5-5-5-5--7-----| 
-2-----------0-----------------------3-3-3-3-3--5--0--| 
------------------------------------------------------| 







7:08 



------------------_______------------------------------------------------| 
------------------)~~~~|-(------/\---------------------------------------| 
---^---7-----7---9-----9---7-9-7976-7-9--6-7---6-----------------_-------| 
7-7-9----9-----9-----------------------------9---9-7------------/ \------| 
-----------------------------------------------------9-8-7-5-7-7-8-7-5---| 
-----------------------------------------------------------------------7~| 



7:18 
                                        __ 
---------------------------------------/  \--------------| 
---------------------------)-----7-10-7-10-7----7--------| 
--------------7-------7---9--9~~-------------10---10-9---| 
----------7-9---7~--9---9--------------------------------| 
----5-7-9------------------------------------------------| 
5-7------------------------------------------------------| 
                                  |  |         | |  | |            

---_______----------------------------| 
--/       \---------------------------| 
-7-9-7\6/7-9-7---7-------9-7----------| 
---------------9---9-7-9-----9-7~~----| 
--------------------------------------| 
--------------------------------------| 



7:26 

   ____         ____         ____ 
---)  (^--------)  (^--------)  (------------| 
--9-----7-9~~--9-----7-9~~--9-----7-10-12~---| 
---------------------------------------------| 
---------------------------------------------| 
---------------------------------------------| 
---------------------------------------------| 



7:32 

---^---------------------------------------------------| 
-12-10-------------------------------------------------| 
-------11-10-9-7~~----------------7--------------------| 
---------------------9-7-9--7-8-9---9~~---9-7----------| 
----------------------------------------------9-8-7~~--| 
-------------------------------------------------------| 



7:38 

----------------------------------------------------------------)~~-| 
------------------------------------)~~~----7-10---7-10-7---7-10----| 
---_-----------------7------^--7-9-9------9------9--------9---------| 
--/ \------------7-9---7~--7-9--------------------------------------| 
-5-7-5-4-5-7-7/9----------------------------------------------------| 
--------------------------------------------------------------------| 



7:44             _ 
                / \ 
-7----7-9-10-9-7-9-7----7---)~~~~-7--------)-7--------)----| 
---10----------------10---10--------10-7-10----10-7-10-----| 
-----------------------------------------------------------| 
-----------------------------------------------------------| 
-----------------------------------------------------------| 
-----------------------------------------------------------| 

   
   
-7-10-7----7-10-7----7-10-7----7-10-7----7-10-7----7-10-7-----| 
--------10--------10--------10--------10--------10--------10--| 
--------------------------------------------------------------| 
--------------------------------------------------------------| 
--------------------------------------------------------------| 
--------------------------------------------------------------| 


-7-10-7----7-10-7----7-10-7----7-10-7-----| 
--------10--------10--------10--------10--| 
------------------------------------------| 
------------------------------------------| 
------------------------------------------| 
------------------------------------------| 



7:51 

--------7-------------------------------------------------------------| 
-7-9-10---10-9-7-------7----------------------------------------------| 
-----------------9-7-9---9-7-------7---------___________---------7----| 
-----------------------------9-7-9---9-7----/           \----7-9---7~~| 
-----------------------------------------9-7-9-7-5-7-5-7-5-9----------| 
----------------------------------------------------------------------| 


----------------_______---------------------------------------------| 
------)---------)     (^---------____---------____------------------| 
---7-9---7---7-9--------7--------)  (---------)  (-----------11-----| 
-9---------9--------------9~---11-----9~~---12-----9~~--12-9----12--| 
--------------------------------------------------------------------| 
--------------------------------------------------------------------| 




-------------------------------------------------| 
--------____---------____------------------------| 
--------)  (---------)  (------------------------| 
-9~---11-----9~~---12-----9~~--5-5-5-5-5--7------| 
-------------------------------3-3-3-3-3--5--0---| 
-------------------------------------------------| 




-------------------------------0----------------------| 
-------4-----------2--------------0-------------------| 
----------4-----------2-----4-------------------------| 
----4-----------2--------2-----------5-5-5-5-5--7-----| 
-2-----------0-----------------------3-3-3-3-3--5--0--| 
------------------------------------------------------| 

-------------------------------0----------------------| 
-------4-----------2--------------0-------------------| 
----------4-----------2-----4-------------------------| 
----4-----------2--------2-----------5-5-5-5-5--7-----| 
-2-----------0-----------------------3-3-3-3-3--5--0--| 
------------------------------------------------------| 

-------------------------------0----------------------| 
-------4-----------2--------------0-------------------| 
----------4-----------2-----4-------------------------| 
----4-----------2--------2-----------5-5-5-5-5--7-----| 
-2-----------0-----------------------3-3-3-3-3--5--0--| 
------------------------------------------------------| 

-------------------------------0----------------------| 
-------4-----------2--------------0-------------------| 
----------4-----------2-----4-------------------------| 
----4-----------2--------2-----------5-5-5-5-5--7-----| 
-2-----------0-----------------------3-3-3-3-3--5-----| 
------------------------------------------------------| 

----------------------------------| 
----------------------------------| 
----------------------------------| 
-4--------------------444---------| 
-2--------------------222---------| 
----------------------------------| 
                          | 
	  

Search Paypal
auto scroll beats size up size down change color hide chords drawings
tab show chords e-chords YouTube Clip e-chords hide all tabs e-chords go to top tab