Black Sabbath

home > Black Sabbath

Age Of Reason Tab

Black Sabbath

Difficulty: BeginnerBeginner

by deivcavalcanti

tuner correct add songbook print version text version save to e-mail
chordsukulelecavacokeyboardtabbassdrumsharmonicsflute Guitar Pro
chords

Age Of Reason

  		

Tuning: Eb Ab Db Gb Bb Eb 






----------------------------------------------| 
-----------------------------------___--------| 
----------------------------------/   \-------| 
------------9-7~\--------------9-7~-\5-0-7----| 
-2---7-9-10--------2----7-9-10-----------5----| 
-0-----------------0--X-----------------------| 
                                          ~ 

--------------------------------------------| 
--------------------------------------------| 
-------------------------------------7-\----| 
-------------9-7~\--------------9-7~--------| 
-2----7-9-10--------2----7-9-10-------------| 
-0--X---------------0--X--------------------| 






0:22 

----------------------------------------------------------| 
----------------------------------------------------------| 
--------7-----------------------------7-------------------| 
--------5-----------------------------5-------------------| 
----------------------------------------------------------| 
-5-0--0-----0-5-0-7-0-3-0---0-5-0--0------0-5-0-7-0-3-0---| 
         ~                             ~ 


------------------------------------------------------------| 
------------------------------------------------------------| 
---------7-----------------------------7-------------9-8-7--| 
---------5-----------------------------5-------------9-8-7--| 
-----------------------------------------------------7-6-5--| 
0-5-0--0-----0-5-0-7-0-3-0---0-5-0--0------0-5-0-7-0--------| 
          ~                             ~ 




0:37 

----------------------------------------------------------| 
----------------------------------------------------------| 
---------7-----------------------------7------------------| 
---------5-----------------------------5------------------| 
----------------------------------------------------------| 
-5-0--0------0-5-0-7-0-3-0---0-5-0--0------0-5-0-7-0-3-0--| 
          ~                             ~ 

----------------------------------------------------------| 
----------------------------------------------------------| 
---------7-----------------------------7------------------| 
---------5-----------------------------5------------------| 
----------------------------------------------------------| 
0-5-0--0-----0-5-0-7-0-3-0---0-5-0--0------0-5-0-7-0-3-0--| 
          ~                             ~ 

----------------------------------------------------------| 
----------------------------------------------------------| 
---------7-----------------------------7------------------| 
---------5-----------------------------5------------------| 
----------------------------------------------------------| 
0-5-0--0-----0-5-0-7-0-3-0---0-5-0--0------0-5-0-7-0-3-0--| 
          ~                             ~ 

----------------------------------------------------------| 
----------------------------------------------------------| 
---------7-----------------------------7------------------| 
---------5-----------------------------5------------------| 
----------------------------------------------------------| 
0-5-0--0-----0-5-0-7-0-3-0---0-5-0--0------0-5-0-7-0-3-0--| 
          ~                             ~ 






1:05 

----------------------------------------------| 
----------------------------------------------| 
----------------------------7-----------------| 
---9--8--7--9---------------5-----------------| 
---7--6--5--7--5------------------------------| 
-0-------------3----5-0--0-----0-5-0-7-0-3-0--| 
                             ~ 

----------------------------------------------| 
----------------------------------------------| 
----------------------------------------------| 
---9--8--7--9-----------------\---------------| 
---7--6--5--7--5-----2------s-\---------------| 
-0-------------3-----0------------------------| 
                              






1:21 

----------------------------------------------------------| 
----------------------------------------------------------| 
--------7-----------------------------7-------------------| 
--------5-----------------------------5-------------------| 
----------------------------------------------------------| 
-5-0--0-----0-5-0-7-0-3-0---0-5-0--0------0-5-0-7-0-3-0---| 
         ~                             ~ 

------------------------------------------------------------| 
------------------------------------------------------------| 
---------7-----------------------------7-------------9-8-7--| 
---------5-----------------------------5-------------9-8-7--| 
-----------------------------------------------------7-6-5--| 
0-5-0--0-----0-5-0-7-0-3-0---0-5-0--0------0-5-0-7-0--------| 
          ~                             ~ 



1:36 

----------------------------------------------------------| 
----------------------------------------------------------| 
---------7-----------------------------7------------------| 
---------5-----------------------------5------------------| 
----------------------------------------------------------| 
-5-0--0------0-5-0-7-0-3-0---0-5-0--0------0-5-0-7-0-3-0--| 
          ~                             ~ 

----------------------------------------------------------| 
----------------------------------------------------------| 
---------7-----------------------------7------------------| 
---------5-----------------------------5------------------| 
----------------------------------------------------------| 
0-5-0--0-----0-5-0-7-0-3-0---0-5-0--0------0-5-0-7-0-3-0--| 
          ~                             ~ 

----------------------------------------------------------| 
----------------------------------------------------------| 
---------7-----------------------------7------------------| 
---------5-----------------------------5------------------| 
----------------------------------------------------------| 
-5-0--0------0-5-0-7-0-3-0---0-5-0--0------0-5-0-7-0-3-0--| 
          ~                             ~ 

----------------------------------------------------------| 
----------------------------------------------------------| 
---------7-----------------------------7------------------| 
---------5-----------------------------5------------------| 
----------------------------------------------------------| 
0-5-0--0-----0-5-0-7-0-3-0---0-5-0--0------0-5-0-7-0-3-0--| 
          ~                             ~ 







2:05 

----------------------------------------------| 
----------------------------------------------| 
----------------------------7-----------------| 
---9--8--7--9---------------5-----------------| 
---7--6--5--7--5------------------------------| 
-0-------------3----5-0--0-----0-5-0-7-0-3-0--| 
                             ~ 

----------------------------------------------| 
----------------------------------------------| 
----------------------------------------------| 
---9--8--7--9-----------------\---------------| 
---7--6--5--7--5-----2------s-\---------------| 
-0-------------3-----0------------------------| 
                              






2:21 

-------------------------------------------------| 
--------------------------------------___--------| 
-------------------------------------/   \-------| 
-------------9-7~--\--------------9-7~-\5-0-7----| 
-2----7-9-10----------2----7-9-10-----------5----| 
-0--X-----------------0--X-----------------------| 
                                           ~ 

----------------------------------------------| 
----------------------------------------------| 
---------------------------------------7-\----| 
-------------9-7~--\--------------9-7~--------| 
-2----7-9-10----------2----7-9-10-------------| 
-0--X-----------------0--X--------------------| 



----------------------------| 
----------------------8-\---| 
-------------------7--------| 
----------5--7--9-----------| 
-3--5--7--------------------| 
----------------------------| 







2:45 


--------------------------------------------------| 
--------------------------------------------------| 
--------------------------------------------------| 
-------2--------1--------------2--------1--2-1~---| 
----2-----2--3-----3-2~-----2-----2--3------------| 
-0-----------------------0------------------------| 
 *  *      *  *    *     *  *  *  *  *  *   

--------------------------------------------------| 
--------------------------------------------------| 
--------------------------------------------------| 
-------2--------1--------------2--------1---------| 
----2-----2--3-----3-2~-----2-----2--3------------| 
-0-----------------------0-----------------3-2~---| 
 *  *  *  *  *     *     *  *  *  *  *     


--------------------------------------------------| 
--------------------------------------------------| 
--------------------------------------------------| 
-------2--------1--------------2--------1--2-1~---| 
----2-----2--3-----3-2~-----2-----2--3------------| 
-0-----------------------0------------------------| 
 *  *  *   *  *    *     *  *  *  *  *  *   

--------------------------------------------------| 
--------------------------------------------------| 
--------------------------------------------------| 
-------2--------1--------------2--------1---------| 
----2-----2--3-----3-2~-----2-----2--3------------| 
-0-----------------------0-----------------3-2~---| 
 *  *  *  *  *     *     *  *  *  *  *     

--------------------------------------------------| 
--------------------------------------------------| 
--------------------------------------------------| 
-------2--------1--------------2--------1--2-1~---| 
----2-----2--3-----3-2~-----2-----2--3------------| 
-0-----------------------0------------------------| 
 *  *  *   *  *    *     *  *  *  *  *  *   

-------------------------------------------------------------| 
-------------------------------------------------------------| 
-------------------------------------------------------------| 
-------2--------1---------5--4---9--8--7-6--5--4---9--8--7-5-| 
----2-----2--3-----3-2~---3--2---7--6--5-4--3--2---7--6--5-3-| 
-0-----------------------------------------------------------| 
 *  *  *  *  *     *         





3:34 

---------------------------------------| 
---------------------------------------| 
-------------4-------------------------| 
----3-----3-----3-----3----------------| 
-2-----2-----------2-----2--------3----| 
----------------------------2--3-------| 


---------------------------------------| 
---------------------------------------| 
-------------4-------------------------| 
----3-----3-----3-----3----------------| 
-2-----2-----------2-----2--------3----| 
----------------------------2--3-------| 


---------------------------------------| 
---------------------------------------| 
-------------4-------------------------| 
----3-----3-----3-----3----------------| 
-2-----2-----------2-----2--------3----| 
----------------------------2--3-------| 


---------------------------------------| 
---------------------------------------| 
-------------4-------------------------| 
----3-----3-----3-----3----------------| 
-2-----2-----------2-----2--------3----| 
----------------------------2--3-------| 







3:58 


---------------------------------------------------------------| 
---------------------------------------------------------------| 
---------------------------------------------------------------| 
-4-4---4-4---4-4---4-4---4-5-4---4-4---4-4---4-4---4-4---5-----| 
-2-2---2-2---2-2---2-2-0-2-3-2-0-2-2---2-2---2-2---2-2-0-3-----| 
---------------------------------------------------------------| 
    |     |     |                   |     |     |         ~ 

---------------------------------------------------------------| 
---------------------------------------------------------------| 
---------------------------------------------------------------| 
-4-4---4-4---4-4---4-4---4-5-4---4-4---4-4---4-4---4-------5---| 
-2-2---2-2---2-2---2-2-0-2-3-2-0-2-2---2-2---2-2---2-4--5--3---| 
-----------------------------------------------------2--3--3---| 
    |     |     |                   |     |     |          




---------------------------------------------------------------| 
---------------------------------------------------------------| 
---------4-------------------------------4---------------------| 
-4-4---4-4---4-4---4-4---4-5-4---4-4---4-4---4-4---4-4---5-----| 
-2-2---2-----2-2---2-2-0-2-3-2-0-2-2---2-----2-2---2-2-0-3-----| 
---------------------------------------------------------------| 
    |     |     |                   |     |     |         ~ 

---------------------------------------------------------------| 
---------------------------------------------------------------| 
---------------------------------------------------------------| 
-4-4---4-4---4-4---4-4---4-5-4---4-4---4-4---4-4---4-------5---| 
-2-2---2-2---2-2---2-2-0-2-3-2-0-2-2---2-2---2-2---2-4--5--3---| 
-----------------------------------------------------2--3--3---| 
    |     |     |                   |     |     |          


---------------------------------------------------------------| 
---------------------------------------------------------------| 
---------4-------------------------------4---------------------| 
-4-4---4-4---4-4---4-4---4-5-4---4-4---4-4---4-4---4-4---5-----| 
-2-2---2-----2-2---2-2-0-2-3-2-0-2-2---2-----2-2---2-2-0-3-----| 
---------------------------------------------------------------| 
    |     |     |                   |     |     |         ~ 

---------------------------------------------------------------| 
---------------------------------------------------------------| 
---------------------------------------------------------------| 
-4-4---4-4---4-4---4-4---4-5-4---4-4---4-4---4-4---4-------5---| 
-2-2---2-2---2-2---2-2-0-2-3-2-0-2-2---2-2---2-2---2-4--5--3---| 
-----------------------------------------------------2--3--3---| 
    |     |     |                   |     |     |          






4:35 


---------------------------------------| 
---------------------------------------| 
-------------4-------------------------| 
----3-----3-----3-----3----------------| 
-2-----2-----------2-----2--------3----| 
----------------------------2--3-------| 


---------------------------------------| 
---------------------------------------| 
-------------4-------------------------| 
----3-----3-----3-----3----------------| 
-2-----2-----------2-----2--------3----| 
----------------------------2--3-------| 







4:47 

--------------------------------------------| 
--------------------------------------------| 
-----------------------------------7--------| 
------------9-7~\--------------9-7----9~----| 
-2---7-9-10--------2----7-9-10--------------| 
-0-----------------0--X---------------------| 
                                           

---------------------------------------------| 
----------------------------5-5-8-8-8-8-7-7--| 
----------------------------x-x-x-x-x-x-x-x--| 
-------------9-7~---5\4-2~--2-2/5-5-5-5\4-4--| 
-2----7-9-10---------------------------------| 
-0--X----------------------------------------| 
                                           

---------------------------------------------| 
---------------------------------------------| 
------------------------------------7--------| 
-------------9-7~\--------------9-7----9~----| 
-2----7-9-10--------2----7-9-10--------------| 
-0--X---------------0--X---------------------| 
                                  

-------------------------------------------------| 
-------------------------------------------------| 
-------------------------------------------------| 
-------------9-7~--5\4-5~---5-5/7-7/9-9/12-12/14-| 
-2----7-9-10-------------------------------------| 
-0--X--------------------------------------------| 
          






5:18 


solo                                                __ 
                       ~~~~~         ^             /  \              ~~~ 
------------------)---)------12-14-15-14-14-12---12-14-12--12---)---)--| 
---)---------12-15--15------------------------15---------15---15--15---| 
-14--12----------------------------------------------------------------| 
-------14~~~-----------------------------------------------------------| 
-----------------------------------------------------------------------| 
-----------------------------------------------------------------------| 
                                     | 



5:25 

-12------^-----------------------------| 
----15-12-15-12------------)-----------| 
----------------14-12----14--14-12~~-\-| 
----------------------14---------------| 
---------------------------------------| 
---------------------------------------| 



5:28 

------------------------------------------------------------| 
------------------------------------------------------------| 
-------^---------------------------------_____--------------| 
-/14-12-14-12~~~~-----------------------/     \-------------| 
------------------/14--13--12--10--12-10-12-10-9-10--12--10-| 
------------------------------------------------------------| 
                      
-----------------------------------------------------------| 
-----------------------------------------------------------| 
---__-----------__------------------------__---------------| 
--/  \---------/  \------------^---------/  \--------------| 
-9-10-9----10-9-10-9----10-9-10-9----10-9-10-9----9--------| 
--------12-----------12-----------12-----------12---12~~---| 



5:34 

--------------------------------------------___-----| 
-------------------------------^-----)~~~---) (-----| 
-------------------------12--12-14-14-----14----12--| 
-----------------12-13-14--14-----------------------| 
-------9-10-12/14-----------------------------------| 
-10-12----------------------------------------------| 

      

5:37                                      __ 
           ___                     /\     /  \        ^ 
---)~~~~---) (-------12-14-15-14-121412-12-14-12----12-14-12----12--15--17-| 
-15------15----13-15-----------------------------15----------15------------| 
---------------------------------------------------------------------------| 
---------------------------------------------------------------------------| 
---------------------------------------------------------------------------| 
---------------------------------------------------------------------------| 
                                                                  |   |   | 

   ~~~~~~__               ~~~__              ~~~__ 
   )    |  (         )   )  | (         )   )  | (       )( 
-17-----17---15----17--17--17---15----17--17--17---15--20--\---| 
---------------17-----------------17---------------------------| 
---------------------------------------------------------------| 
---------------------------------------------------------------| 
---------------------------------------------------------------| 
---------------------------------------------------------------| 
                 |                  | 



5:47 
                                                          __ 
----12------12-------------------------------------------/  \----| 
-15----15------15-12-15---^---12----------^---12-14-15-12-15-12--| 
------------------------12-14----14-12--12-14--------------------| 
-----------------------------------------------------------------| 
-----------------------------------------------------------------| 
-----------------------------------------------------------------| 
         | 


   ^       ^       ^        ^        ^        ^        ^        ^ 
-15-12---15-12---15-12----15-12----15-12----15-12----15-12----15-12----| 
------15------15-------15-------15-------15-------15-------15-------15-| 
-----------------------------------------------------------------------| 
-----------------------------------------------------------------------| 
-----------------------------------------------------------------------| 
-----------------------------------------------------------------------| 
        |       |        |        |        |        |        |        | 
    __         __ 
   /  \       /  \           ^           ^           ^ 
-12-15-12---12-15-12----12-15-12----12-15-12----12-15-12----12----| 
---------15----------15----------15----------15----------15----15-| 
------------------------------------------------------------------| 
------------------------------------------------------------------| 
------------------------------------------------------------------| 
------------------------------------------------------------------| 
           | 
                   __ 
---)~~-12---------/  \---------_------__-------------| 
-15------15-12--12-15-12------/ \----/  \-----^------| 
--------------15---------15-121412-14121412-14-12----| 
-------------------------------------------------14--| 
-----------------------------------------------------| 
-----------------------------------------------------| 


---------__---------------------------------------------------------------| 
--------/  \--------------------------------------------------------------| 
12\11-14121412---^--12------^--12-----------------------------------14----| 
---------------12-14---14-12-14--14-12------^--------------^-----------12~| 
---------------------------------------14-10-12----10----12-10-12/14------| 
------------------------------------------------12----12------------------| 
                                                



5:59 

----)--------------------------------------------------------------| 
-/13---------------------------------------------------------------| 
-------9-8-7~~------------------_____------------------------------| 
--------------------)----------/     \-----------------------------| 
---------------/\/15-\-10-12-10-12-10-9-10-12-10-9----10/12-9------| 
---------------------------------------------------12---------12---| 
       * *                
                                                         ____ 
                                                         )   ~~~ 
-------------------------------------------------15-15-12---|-----| 
-------------------------------------------------15-15-15--15-----| 
--------------------------14\12-12~~--14\12-12~~------------------| 
-------ph---------------------------------------------------------| 
-10/12-9-----9-12-9-10/12-----------------------------------------| 
----------12------------------------------------------------------| 

                                      ______ 
-12----------------------_____--------)    (---------| 
----15-12----ph---------/     \-----12---------------| 
----------14-14-12----12/16\14\12~~----------9~~~-\--| 
-------------------14--------------------------------| 
-----------------------------------------------------| 
-----------------------------------------------------| 
                    * 



6:14 

---------------------------------------------------------| 
----------------)(-------------)(------------------------| 
------12---14-12-------------12-------------12-----------| 
-/14----14---------14-12----------14-12-------14-12-14---| 
-------------------------14-------------14---------------| 
---------------------------------------------------------| 
   |      |  |             |              |           | 


                                               __ 
                                          )   /  \ 
-------------__-------__----------------15--15~~-12--| 
------------/  \-----/  \---------12-15--------------| 
-12-------14/16\14-12-14-12-12-14--------------------| 
----14-12--------------------------------------------| 
-----------------------------------------------------| 
-----------------------------------------------------| 

                         __ 
   ^           ^        /  \ 
-15-12-------15-12----12-15-12----12---^---12------------------------------| 
-------15-12-------15----------15----12-15----15-12---12-----12---------12-| 
----------------------------------------------------14--12-14--14-12-14----| 
---------------------------------------------------------------------------| 
---------------------------------------------------------------------------| 
---------------------------------------------------------------------------| 


-----------------------------------------| 
-----------------------------------------| 
----------12-----------------------------| 
-12-13-14----14-12-----------------------| 
-------------------14-13-12--------------| 
---------------------------15-12~\-------| 





6:23 



----------------------------------------------| 
----------------------------------------------| 
----------------------------------------------| 
-9--9---9-9-7-7-7-----9--9--9-9-9-5-5-5-------| 
-7--7---7-7\5-5-5-----7--7--7-7-7\3-3-3-------| 
------------------0-0-------------------0-0---| 
                  * *                   * * 

------------------------------------------------------| 
---------------------------------------5-5---8-8-7-7--| 
---------------------------------------X-X---X-X-X-X--| 
-9--9---9-9-7-7-7-12-12--5---5-5--5----2-2---5-5-4-4--| 
-7--7---7-7\5-5-5/10-10\-3---3-3--3-------------------| 
-------------------------------------0----0-----------| 
                   


----------------------------------------------------| 
----------------------------------------------------| 
----------------------------------------------------| 
-9--9-9--9-9-7-7--7-7-9-----9--9--9-9-9-5-5-5-------| 
-7--7-7--7-7\5-5--5-5-7-----7--7--7-7-7\3-3-3-------| 
------------------------0-0-------------------0-0---| 
                        * *                   * * 



---------------------------------| 
---------------------------------| 
---------------------------------| 
-9--9---9-9-7-7-7-12-12--5-------| 
-7--7---7-7\5-5-5/10-10\-3-------| 
---------------------------------| 
	  

Search Paypal
auto scroll beats size up size down change color hide chords drawings
tab show chords e-chords YouTube Clip e-chords hide all tabs e-chords go to top tab