save to print version add songbook text version e-mail correct tuner
chordsukulelecavacokeyboardtabbassdrumsharmonicaflute Guitar Pro
close

there isn't a video lesson for this song

chords

White Palms

	  		
Verse 

e|--0----7------| 
B|--0----0------| 
G|--7--6/7------| 
D|--6--5/6------| 
A|--5--4/5------| 
E|--0----0------| 

Pre Chorus 

e|--0-----0-----| 
B|--0-----0-----| 
G|--4-----6-----| 
D|--0-----0-----| 
A|--2-----4-----| 
E|--0-----0-----| 

e|--x-x-x-x-----| 
B|--x-x-x-x-----| 
G|--x-x-x-x-----| 
D|--x-x-x-x-----| 
A|--x-x-x-x-----| 
E|--x-x-x-x-----| 

Solo 

e|-----------------------------------------| 
B|------------9-9-9-9-12-12-12-12----------| 
G|--(7)/9-9-9-9-9-9-9--9--9--9--9-9-9-9-9--| 
D|--(7)/9-9-9---------------------9-9-9-9--| 
A|-----------------------------------------| 
E|-----------------------------------------| 
		  

See also:

tabs Red Hot Chili Peppers - Under the brigde tabs Red Hot Chili Peppers - Under the Bridge (completo) tabs 311 - The Love Song tabs Red Hot Chili Peppers - Live in Slane Castle tabs No Doubt - don't speak solo tabs Red Hot Chili Peppers - Under The Bridge Acoustic
e-chords

Other versions:

tabs Black Rebel Motorcycle Club - White Palms
auto scroll beats size up size down change color hide chords drawings
tab show chords e-chords YouTube Clip e-chords hide all tabs e-chords go to top tab

share