Black Rebel Motorcycle Club

Beat The Devil's Tattoo

Black Rebel Motorcycle Club

tabs Expert expert

by  ALYSLIMA

save to print version add songbook text version e-mail correct tuner
chordsukulelecavacokeyboardtabbassdrumsharmonicaflute Guitar Pro
close

there isn't a video lesson for this song

chords

Beat The Devil's Tattoo

(Robert Levon Been)

	  		

Introdução e Verso

e|0----------------------------------------------------0----------|
B|0----------------------------------------------------0----------|
G|0---------------------------9-7---0------0-----------0----------|
E|0-3-5-7--7--7-10-7-5-3--0-------7---5--5---5-7-5--3--0----------|
B|0-----------------------------------5--5---5---5--3--0----------|
E|0-----------------------------------5--5---5---5--3--0----------|

Refrão

e|0---------------------------0--------------------0--------------|
B|0---------------------------0--------------------0--------------|
G|0---------------------------0--------------------0--------------|
E|0---------------3-----------0-3-0-7--7--7-10-7-3-0--------------|
B|0---------------------------0-3-0-7--7--7----7-3-0--------------|
E|0-3-5-3--0--0-----0-3-0--0--0-3-0-7--7--7----7-3-0--------------|

Ponte
e|0-------------------0-----------|
B|0-------------------0-----------|
G|0-------------------0-----------|       (3x)
E|0-5b--3-5--5--3--2--0-----------|
B|0-------5--5--3--2--0-----------|
E|0-------5--5--3--2--0-----------|

e|0--------------------0----------|
B|0--------------------0----------|
G|0--------------------0----------|       
E|0-3-0-7--7--7-10-7-3-0----------|
B|0-3-0-7--7--7----7-3-0----------|
E|0-3-0-7--7--7----7-3-0----------|

 
		  

See also:

tabs Red Hot Chili Peppers - Under the brigde tabs Red Hot Chili Peppers - Under the Bridge (completo) tabs 311 - The Love Song tabs Red Hot Chili Peppers - Live in Slane Castle tabs No Doubt - don't speak solo tabs Red Hot Chili Peppers - Under The Bridge Acoustic
e-chords

Other versions:

tabs Black Rebel Motorcycle Club - Beat The Devil's Tattoo
auto scroll beats size up size down change color hide chords drawings
tab show chords e-chords YouTube Clip e-chords hide all tabs e-chords go to top tab

share