Black Pistol Fire

Hipster Shakes

Black Pistol Fire

tabs

by  LUCICAMARGO

save to print version add songbook text version e-mail correct tuner
chordsukulelecavacokeyboardtabbassdrumsharmonicaflute Guitar Pro
close

there isn't a video lesson for this song

chords

Hipster Shakes

	  		

Intro/Chorus 
-----------------------------------------------0-----0-| 
-----------------------------------------------1-----1-| 
---5-3-0-3-------5-3-0-5b7-------5-3-0-3-0-----0-----0-| 
-5-------------5---------------5---------------3-----2-| 
-----------------------------------------------3-----3-| 
-----------------------------------------------0-----0-| 

Verse 
-3-----1-----3------------------| 
-3-----1-----3------------------| 
-4-----2-----4------------------| 
-5-----3-----5------------------| 
-5-----3-----5---3s5--3-1-3-1---| 
-3-----1-----3----------------3-| 

Pre-Chorus                  1st time          2nd Time 
--------------------------:-----------------:-8-----10-| 
--------------------------:-----------------:-8-----10-| 
--------------------------:-----------------:-9-----11-| 
--------------------------:-----------------:-10----12-| 
--------------------------:-----------------:-10----12-| 
-3-5-3-3-----10-13-10-10--:---8-10-8-8-8-8--:-8-----10-| 

Intro 
Verse 
Pre-Chorus 
Chorus 
Verse 
Pre-Chorus 
Chorus 
Turnaround(A held G major) 
Chorus 
		  

Full key step upFull key step up
Half key step upHalf key step up
Half key step downHalf key step down
Full key step downFull key step down
auto scroll beats size up size down change color hide chords drawings
tab show chords e-chords YouTube Clip e-chords hide all tabs e-chords go to top tab

share