Black Pistol Fire

Alabama Coldcock

Black Pistol Fire

tabs

by  VSWORLD

save to print version add songbook text version e-mail correct tuner
chordsukulelecavacokeyboardtabbassdrumsharmonicaflute Guitar Pro
close

there isn't a video lesson for this song

chords

Alabama Coldcock

	  		
Intro 

e|---------------------------------------------------------------------------| 
B|---------------------------------------------------------------------------| 
G|--------------------------7b-7-5-------------------------------------------| 
D|---------------------------------7-----------------------------------------| 
A|---------------------------------------------------------------------------| 
E|-3-5---5-8---8-10----------------------------------------------------------| 

e|--------------------------7-5---5------------------------------------------| 
B|------------------------------7--------------------------------------------| 
G|---------------------------------------------------------------------------| 
D|---------------------------------------------------------------------------| 
A|---------------------------------------------------------------------------| 
E|-3-5---5-8---8-10----------------------------------------------------------|   x2 


Verse 

e|---------------------------------------------------------------------------| 
B|---------------------------------------------------------------------------| 
G|--------------------------7b-7-5-------------------------------------------| 
D|---------------------------------7-----------------------------------------| 
A|---------------------------------------------------------------------------| 
E|-3-5---5-8---8-10----------------------------------------------------------| 

e|--------------------------7-5---5------------------------------------------| 
B|------------------------------7--------------------------------------------| 
G|---------------------------------------------------------------------------| 
D|---------------------------------------------------------------------------| 
A|---------------------------------------------------------------------------| 
E|-3-5---5-8---8-10----------------------------------------------------------| 

e|---------------------------------------------------------------------------| 
B|---------------------------------------------------------------------------| 
G|--------------------------7b-7-5-------------------------------------------| 
D|---------------------------------7-----------------------------------------| 
A|---------------------------------------------------------------------------| 
E|-3-5---5-8---8-10----------------------------------------------------------| 

e|---------------------------------------------------------------------------| 
B|---------------------------------------------------------------------------| 
G|---------------------------------------------------------------------------| 
D|---------------------------------------------------------------------------| 
A|---------------------------------------------------------------------------| 
E|-3-5---5-8---8-10~---------------------------------------------------------| 


Chorus 

e|---------------------------------------------------------------------------| 
B|---------------------------------------------------------------------------| 
G|---------------------------------------------------------------------------| 
D|--7--5--10--12-------------------------------------------------------------| 
A|--7--5--10--12-------------------------------------------------------------| 
E|--5--3--8---10-------------------------------------------------------------|   x4 

e|---------------------------------------------------------------------------| 
B|---------------------------------------------------------------------------| 
G|---------------------------------------------------------------------------| 
D|--14~-12~------------------------------------------------------------------| 
A|--14~-12~------------------------------------------------------------------| 
E|--12~-10~------------------------------------------------------------------|    


Verse 

e|---------------------------------------------------------------------------| 
B|---------------------------------------------------------------------------| 
G|--------------------------7b-7-5-------------------------------------------| 
D|---------------------------------7-----------------------------------------| 
A|---------------------------------------------------------------------------| 
E|-3-5---5-8---8-10----------------------------------------------------------| 

e|--------------------------7-5---5------------------------------------------| 
B|------------------------------7--------------------------------------------| 
G|---------------------------------------------------------------------------| 
D|---------------------------------------------------------------------------| 
A|---------------------------------------------------------------------------| 
E|-3-5---5-8---8-10----------------------------------------------------------|   x2 

e|---------------------------------------------------------------------------| 
B|---------------------------------------------------------------------------| 
G|--------------------------7b-7-5-------------------------------------------| 
D|---------------------------------7-----------------------------------------| 
A|---------------------------------------------------------------------------| 
E|-3-5---5-8---8-10----------------------------------------------------------| 

e|---------------------------------------------------------------------------| 
B|---------------------------------------------------------------------------| 
G|---------------------------------------------------------------------------| 
D|---------------------------------------------------------------------------| 
A|---------------------------------------------------------------------------| 
E|-3-5---5-8---8-10~---------------------------------------------------------| 


Chorus 

e|---------------------------------------------------------------------------| 
B|---------------------------------------------------------------------------| 
G|---------------------------------------------------------------------------| 
D|--7--5--10--12-------------------------------------------------------------| 
A|--7--5--10--12-------------------------------------------------------------| 
E|--5--3--8---10-------------------------------------------------------------|   x4 

e|---------------------------------------------------------------------------| 
B|---------------------------------------------------------------------------| 
G|---------------------------------------------------------------------------| 
D|--14~-12~------------------------------------------------------------------| 
A|--14~-12~------------------------------------------------------------------| 
E|--12~-10~------------------------------------------------------------------|    


Outro 

e|---------------------------------------------------------------------------| 
B|---------------------------------------------------------------------------| 
G|---------------------------------------------------------------------------| 
D|--7--5--10--12-------------------------------------------------------------| 
A|--7--5--10--12-------------------------------------------------------------| 
E|--5--3--8---10-------------------------------------------------------------|   x4 

e|---------------------------------------------------------------------------| 
B|---------------------------------------------------------------------------| 
G|---------------------------------------------------------------------------| 
D|--14~-12~------------------------------------------------------------------| 
A|--14~-12~------------------------------------------------------------------| 
E|--12~-10~------------------------------------------------------------------| 



************************************ 

| b  Bend 
| ~  Vibrato 

************************************ 
		  

auto scroll beats size up size down change color hide chords drawings
tab show chords e-chords YouTube Clip e-chords hide all tabs e-chords go to top tab

share