Black Oak Arkansas

Happy Hooker

Black Oak Arkansas

tabs

by  ALEFFEDERICO

save to print version add songbook text version e-mail correct tuner
chordsukulelecavacokeyboardtabbassdrumsharmonicaflute Guitar Pro
close

there isn't a video lesson for this song

chords

Happy Hooker

	  		
|-------------------------------------------| 
|-------------------------------------------| 
|-------------------------------------------| 
|-------------------------------------------| 
|---2-2--4-4--2-2--4-4--2-2--4-2-5-2-4-4----| 
|---0-0--0-0--0-0--0-0--0-0--0-0-0-0-0-0----| 
 

Chorus 

 
|-----------------------------| 
|-----------------------------| 
|-----------------------------| 
|---2-2--4-4--5-5--4--2--0----| 
|---0-0--0-0--0-0--0--0--0----| 
|-----------------------------| 
		  

See also:

tabs Deep Purple - Time To Kill tabs Deep Purple - Perfect Strangers tabs Ira! - Núcleo Base ( Acústico MTV) tabs Deep Purple - Since Youve Been Gone tabs Deep Purple - Squished Bananas Dave&cammey tabs Deep Purple - Smoke On The Water (Intro + solo 01)
e-chords

Other versions:

tabs Black Oak Arkansas - Happy Hooker
auto scroll beats size up size down change color hide chords drawings
tab show chords e-chords YouTube Clip e-chords hide all tabs e-chords go to top tab

share