Black Label Society

home > Black Label Societ...

America The Beautiful Tab

Black Label Society

Difficulty: EasyEasy

by Nick+D

tuner correct add songbook print version text version save to e-mail
chordsukulelecavacokeyboardtabbassdrumsharmonicsflute Guitar Pro
chords

America The Beautiful

  		Intro (Guitar 1): 
|--------------------------------------| 
|--------------------------------------| 
|-----------0----------------0------0--|  repeat 
|-------0-----0----------0-------0-----| 
|-----2---------2------2-------3-------| 
|---3------3-------3-3-----3-----------| 

Guitar 1: 
|--------------------------------------| 
|--------------------------------------| 
|-----------0----------------0---------| 
|-------0-----0----------0-----0-------| 
|-----2---------2------2---------2-----| 
|---3------3-------3-3-----3-------3---| 

|-------0---0---0----------------------| 
|---------3---3---3--------------------| 
|-----2----------------------2---------| 
|---0--------------------0-----0-------| 
|----------------------0-----------0---| 
|--------------------2-----2-----2-----| 

|------------------------------0-------| 
|------------------------------1-------| 
|-----------2-------------0------0-----| 
|-------0-----0---------2------------0-| 
|-----0-----------0---3-----3------3---| 
|---2-----2-----2----------------------| 

|--------------------------------------| 
|-----------1--------------------------| 
|-------0-----0-------------0----------| 
|-----2---------2-------0-----0--------| 
|---3-----3-------3---2---------2------| 
|-------------------3-----3-------3----| 

|--------------------------------------| 
|--------------------------------------| 
|-----------0--------------------------| 
|-------0-----0------------------------| 
|-----2---------2----------------------| 
|---3-----3-------3--------------------| 


Guitar 2: (Comes in right after Guitar 1 ends the intro and begins playing) 

|-----------------|-------------------|-----------------|--------7-------| 
|-----------------|-----3-5-5/7-------|-----------------|10-9-10-----10--| 
|-7-7-4-4-7-7-2-2-|-4-5---------7-5-4-|-7-7-4-4-7-7-2-2-|----------9-----| 
|-----------------|-------------------|-----------------|----------------| 
|-----------------|-------------------|-----------------|----------------| 
|-----------------|-------------------|-----------------|----------------| 

|---------------------------------------------|--------------------------5----| 
|--10/12-12-10-8-8-10---8-10----------8-0h1-0-|-8-8-5-5-8-8--------5-8-----8--| 
|7--------------------9------9/11-9-7---0h2-0-|-------------7-7--7-----7------| 
|---------------------------------------------|-------------------------------| 
|---------------------------------------------|-------------------------------| 
|---------------------------------------------|-------------------------------| 

|----------------|-------------------|--------------------------7-----------| 
|----------------|-----3-5-5/7-------|------------------10-9-10-----10------| 
|7-7-4-4-7-7-2-2-|-4-5---------7-5-4-|-7-7-4-4-7-7-2-2------------9---------| 
|----------------|-------------------|--------------------------------------| 
|----------------|-------------------|--------------------------------------| 
|----------------|-------------------|--------------------------------------| 

|------------------------------------------------|--------------------------5--|-------| 
|---10/12-12-10-8-8-10---8-8/10----------8-0h1-0-|-8-8-5-5-8-8--------5-8-----8|0h1-0--| 
|-7--------------------9--------9/11-9-7---0h2-0-|-------------7-7--7-----7----|0h2-0--| 
|------------------------------------------------|-----------------------------|-------| 
|------------------------------------------------|-----------------------------|-------| 
|------------------------------------------------|-----------------------------|-------| 

Outro (Guitar 2): 
|-10h12-8h10-7h8------------------------------------| 
|-----------------10h12-8h10-7h8-5h7----------------| 
|-------------------------------------7h9-5h7-------| 
|---------------------------------------------------| 
|---------------------------------------------------| 
|---------------------------------------------------| 
											repeat 3x 
|---------------------------------------------------| 
|---------------------------------------------------| 
|--4h5p4/2--2h4--2--0--0----------------------------| 
|---------------------------------------------------| 
|---------------------------------------------------| 
|---------------------------------------------------| 

	  

Search Paypal
auto scroll beats size up size down change color hide chords drawings
tab show chords e-chords YouTube Clip e-chords hide all tabs e-chords go to top tab