Black Eyed Peas

Pump it (ver. 2)

Black Eyed Peas

tabs Expert expert

by  MOZART_40

save to print version add songbook text version e-mail correct tuner
chordsukulelecavacokeyboardtabbassdrumsharmonicaflute Guitar Pro
close

there isn't a video lesson for this song

chords

Pump it (ver. 2)

	  		e|----------------------------------------| 
B|----------------------------------------| 
G|----------------------------------------| 
D|----------------1-----------------------| 
A|-------0--2--3-----3--2-----------------| 
E|-1--4-----------------------------------| 2x 

e|----------------------------------------| 
B|----------------------------------------| 
G|----------------------------------------| 
D|----------------------------------------| 
A|-3-2-3-2-0---2-0-2-0--------------------| 
E|---------------------4------------------| 

 
As paletadas eh soh ouvindo mesmo! 

		  

See also:

tabs Lindsay Lohan - Take me away tabs Michael Jackson - BEN tabs Stevie Wonder - Sir Duke tabs Michael Jackson - 3 Michael Jackson Riffs tabs Christopher Cross - Sailing tabs Black Eyed Peas - Pump it
e-chords

Other versions:

tabs Black Eyed Peas - Pump it tabs Black Eyed Peas - Pump it (Intro) tabs Black Eyed Peas - Pump it (solo) tabs Black Eyed Peas - Pump it (ver. 2) tabs Black Eyed Peas - Pump it intro
auto scroll beats size up size down change color hide chords drawings
tab show chords e-chords YouTube Clip e-chords hide all tabs e-chords go to top tab

share