Bizet

home > Bizet

Habanera Tab

Bizet

Difficulty: ExpertExpert

by Acelot

tuner correct add songbook print version text version save to e-mail
chordsukulelecavacokeyboardtabbassdrumsharmonicsflute Guitar Pro
chords

Habanera

(Georges Bizet)

Key:  Dm More
Habanera Key AmAm
Habanera Key A#mA#m
Habanera Key BmBm
Habanera Key CmCm(one step down)
Habanera Key C#mC#m(half step down)
Habanera Key DmDm(original key)
Habanera Key D#mD#m(half step up)
Habanera Key EmEm(one step up)
Habanera Key FmFm
Habanera Key F#mF#m
Habanera Key GmGm
Habanera Key G#mG#m
	  
Parte A (1ª parte)   

 e|----------------------------------------------------------|   
 B|-----------------------------3-2-1-1-1-0------------------|   
 G|-----------------------------------------3-2-2-1-0--------|   
 D|-----3-------3-------3-------3---------3-------3---3h5r3\2|   
 A|---0---0---0---0---0---0---0---0-----0---0---0------------|   
 E|-0-------0-------0-------0-------0---------0-------0------|   

 e|----------------------------------------------------------|   
 B|-----------3-2-1-1-1-0------------------------------------|   
 G|-----------------------3-2--2-0---------------------------|   
 D|-3h5-3-2---3---------3--------3-3-2h3p0-2h3-2-0-----------|   
 A|-0---0---0---0-----0---0----0-----------0---0-------------|   
 E|-------0-------0---------0--------0-----------0-----------|   

Parte A (2ª parte)   

 e|-----10-9-8-8-8-7-6-5-5-4--3--1/3\1--0--1--3--1--0--------|   
 B|----------6-----6-----------------------------------------|   
 G|-----7--6-7-----7-------0------------------------3--------|   
 D|----------------0-8-7-7-3--5--3/5\3--2--3--5--3--0--------|   
 A|---0-8--0-----0---0---0-----------------------------------|   
 E|-0--------0---------0---------0---------------------------|   

 e|---10-9--8-8-8-7-6-5----3-1-0h1p0---0h1-0-----------------|   
 B|------8--5-----5-6-5--------------3--------3--------------|   
 G|------8--5-----5-5-3----3-3-2-------1---0-----------------|   
 D|---------------5------3--------------------3--------------|   
 A|---10--------0---0------------------0---0-----------------|   
 E|-8-------0---------0--------0--------------0--------------|   

Parte A (3ª parte)   

 e|---10-9-8-8-8-7-6-5--5-4-3-2h3p2p0--2h3-2--0--10-9-8-8-8--|   
 B|------7-7-----7-7-7----3-3-3-----------------------6---6--|   
 G|------7-7-----7-7-7----0-3-2--------2---2--0--0----7---7--|   
 D|--------------7--------4-------------------2--8-----------|   
 A|---9--------9---0----0--------------0---0--------------0--|   
 E|-0------0---------0--------0---------------2--8----0------|   

 e|-7-6-5--5-3-2-0h2p0---0h2-0--2----------------------------|   
 B|-5-8-8--3-4-4-3-----3-3---2--3----------------------------|   
 G|-7-6-5--5-5-5-2-------2---3--2----------------------------|   
 D|-5---------------------------4----------------------------|   
 A|---6----0-------------0---1-------------------------------|   
 E|-----0--------0--------------0----------------------------|   

Parte B   

 e|----------------------------------------------------------|   
 B|-------------------------------------------0--------0-----|   
 G|----------2--------------0--2-2-2-2-4-2-0-------------0---|   
 D|---0-2-4--4-4-2-0--2--4--2--4-4-4-4-5-4------2-4-4--------|   
 A|-0------------0----0--5------------------------2----------|   
 E|-------0--------4-----------0-----------2--------2--------|   

 e|---------------------------------------0--2--5--2--0------|   
 B|---------------0-0-0-0-2-0----------3--2--3--7--3--0--3---|   
 G|---------0--2--0-0-0-0-2-0-2-----2--2--0--2-----------2---|   
 D|-4--2--4-------------------4-----4--4-----------------4---|   
 A|-2-------------0-----------------------0------------------|   
 E|----5----------------------0-----0--------0-----------0---|   

 e|--0--2--3--5-5-5-5--10--9--------0-2-3--7--3--2--0--2--3--|   
 B|--2--3--5--7-7-7-7--12--10--8------4-0-----------0--------|   
 G|----------------------------7--4---2----8--4--2-----2--4--|   
 D|-----------0---7------------9----2------------------------|   
 A|----------------------------7--2---2----------------------|   
 E|-------------------------------------2-----------2--------|   

 e|--5--9--7--5h7p5--3--2--0---------------------------------|   
 B|---------------------------3------------------------------|   
 G|--6--9--7--6------4--2--0--2------------------------------|   
 D|---------------------------4------------------------------|   
 A|-----0----------------------------------------------------|   
 E|---------------------------0------------------------------|   

 Final da Parte B   

 e|-2--3--5--9--7--5h7p5--14--12--10----10-------------------|   
 B|-------------------------------7-----7--------------------|   
 G|-2--4--6--9--7--6------14--12--7-----7--------------------|   
 D|-------------------------------0-----0--------------------|   
 A|----------0-----------------------0-----------------------|   
 E|----------------------------------------------------------|  


	  

there isn't a video lesson for this song

request
Search
auto scroll beats size up size down change color hide chords drawings
tab show chords e-chords YouTube Clip e-chords hide all tabs e-chords go to top tab