Billy Idol

home > Billy Idol

Rebel Yell (Acoustic solo) Tab

Billy Idol

Difficulty: ExpertExpert

by marcnagel

tuner correct add songbook print version text version save to e-mail
chordsukulelecavacokeyboardtabbassdrumsharmonicsflute Guitar Pro
chords

Rebel Yell (Acoustic solo)

(Billy Idol / Steve Stevens)

  		
e|-----------------------7-7--------7-7--------7-7--------7-7-------7--| 
B|-9--7--9--7------------7-7--------7-7--------7-7--------7-7-------7--| 
G|-9--7--9--7-------9^(11)-----9^(11)-----9^(11)-----9^(11)----9^(11)--| 
D|-------------9-7-----------------------------------------------------| 
A|---------------------------------------------------------------------| 
E|---------------------------------------------------------------------| 

e|----------------------------------------------------------------------------------------| 
B|-----------------------------------10--10--------/10-10-8-7-----------------------------| 
G|---------------------------------7-------------7------------10-9-7-9(10)-7--------------| 
D|-----------------------------7-8-----------7-8-----------------------------9-7----------| 
A|-----------------5-7-7/9---9---------------------------------------------------9-7-5----| 
E|--5-7^(9)*---5-7---------------------------------------------------------------------7--| 
       ^ 
       | 
(release the bend while you play the note) 

e|------------------------------------------------------------------10-10---------| 
B|----------------------------------------------10-11-12--10-11-12---------12-11--| 
G|--------------------------------------7-7---------------------------------------| 
D|------------------------7-8-9--7-8-9-------9------------------------------------| 
A|----------------5-5-------------------------------------------------------------| 
E|--5-6-7--5-6-7-------7----------------------------------------------------------| 


e|-----------------------------------------------------------------------------------------------| 
B|--10-12*---10-12*---10-12*---------------------------------------------------------------------| 
G|-----------------------------10*-9*-7*--10*-9*-7*--10*-9*-7*--10*-9*-7*--10*-9*-7*--10*-9*-7*--| 
D|-----------------------------------------------------------------------------------------------| 
A|-----------------------------------------------------------------------------------------------| 
E|-----------------------------------------------------------------------------------------------| 

e|---------------------------------------| 
B|---------------------------------------| 
G|--9*--7*-------------------------------| 
D|----------9*--7*--------------------9--| 
A|------------------9*--8*---9-7------9--| 
E|-------------------------------10-9-7--| 
	  

Search Paypal
auto scroll beats size up size down change color hide chords drawings
tab show chords e-chords YouTube Clip e-chords hide all tabs e-chords go to top tab