Bill Withers

home > Bill Withers

Who is he and what is he to you Tab

Bill Withers

Difficulty: BeginnerBeginner

by europeu

tuner correct add songbook print version text version save to e-mail
chordsukulelecavacokeyboardtabbassdrumsharmonicsflute Guitar Pro
chords

Who is he and what is he to you

  		 
Tuning : E A D G 	Time Signature: 4/4 
Tempo 100 
 
| | | | | | | | 
|--------------------------------|--------------------------------| 
|--------------------------------|--------------------------------| 
|2---4---------------------------|2---4---------------------------| 
|--------2---4---------------4---|--------2---4---------------4-4-| 
 
| | | | | | | | 
|--------------------------------|--------------------------------| 
|--------------------------------|--------------------------------| 
|2---4---------------------------|2---4---------------------------| 
|--------2---4---------------4---|--------2---4---------------4-4-| 
 
| | | | 
|--------------------------------| 
|--------------------------------| 
|2---4---------------------------|and so on through the whole song! 
|--------2---4---------------4---| 
 
 
 

	  

Full key step upFull key step up
Half key step upHalf key step up
Half key step downHalf key step down
Full key step downFull key step down
Search Paypal
auto scroll beats size up size down change color hide chords drawings
tab show chords e-chords YouTube Clip e-chords hide all tabs e-chords go to top tab