Bill Withers

home > Bill Withers

Steppin Right Along Tab

Bill Withers

Difficulty: nolevelnolevel

by aman%5Fclaudino

tuner correct add songbook print version text version save to e-mail
chordsukulelecavacokeyboardtabbassdrumsharmonicsflute Guitar Pro
chords

Steppin Right Along

  		

Instrumental Intro/Chrous: 
e|---------------------------------------------------------------------------| 
B|---------------------------------------------------------------------------| 
G|---------------------------------------------------------------------------| 
D|----8--8-----6-/-5----------5----5--6--6--8-------8-----6--8---------------|X2 
A|----------8--------------------8---------------------8---------------------| 
E|---------------------------------------------------------------------------| 

Verse: 
e|---------------------------------------------------------------------------| 
B|---------------------------------------------------------------------------| 
G|----6--6--6--6--8----------------------------------------------------------| 
D|----6--6--6--6--8-------5----5----6--6--8----------------------------------| 
A|----4--4--4--4--6----------8-----------------------------------------------| 
E|---------------------------------------------------------------------------| 

Pre-Chorus 
e|---------------------------------------------------------------------------| 
B|---------------------------------------------------------------------------| 
G|----8-----5--------8------5------------------------------------------------| 
D|----8-----6--------8------6--------5-----5--6--6--8------------------------| 
A|----6-----6--------6------6-----------8------------------------------------| 
E|----------4---------------4------------------------------------------------| 

The Key change is just a half step up to B rather than Bb, so just play everything 
one fret higher. Straight forward. 

Lords Prayer/Outro 
e|---------------------------------------------------------------------------| 
B|---------------------------------------------------------------------------| 
G|---------------------------------------------------------------------------| 
D|-----7--7--7-7h9----9--9--9------------------------------------------------| 
A|-----------------------------9--7------------------------------------------| 
E|---------------------------------------------------------------------------| 

Hope you guys like the song, so much fun. 


************************************ 

| /   slide up 
| \   slide down 
| h   hammer-on 
| p   pull-off 
| ~   vibrato 
| +   harmonic 
| x   Mute note 
| b   Bend 
| pb  Pre-bend 
| br  Bend release 
| pbr Pre-bend release 
| brb Bend release bend 

************************************ 
	  

Full key step upFull key step up
Half key step upHalf key step up
Half key step downHalf key step down
Full key step downFull key step down
Search Paypal
auto scroll beats size up size down change color hide chords drawings
tab show chords e-chords YouTube Clip e-chords hide all tabs e-chords go to top tab