Big Time Rush

home > Big Time Rush

My Song For You Tab

Big Time Rush

Difficulty: ExpertExpert

by abelamin

tuner correct add songbook print version text version save to e-mail
chordsukulelecavacokeyboardtabbassdrumsharmonicsflute Guitar Pro
chords

My Song For You

	  Intro: 
|-------------------------|------0-----0------|-----0----0--------|---------------| 
|-----2-------2---------|---------------------|--------------------|-----3-----2--| 
|---2------2-------2----|---1-----1------1-|---2----2-----2---|---2-----2------2--| 
|-------------------------|-2-----2------2---|-4----4----4------|-0-----0-----0---| 
|-0-----0-------0-------|--------------------|--------------------|---------------| 
|-------------------------|--------------------|--------------------|-------------| 


Verse: 
|-------------------------|---------------------|-----0----0-------|--------------| 
|-----2-------2----------|------0-----0------|--------------------|-----3-----2---| 
|---2------2-------2----|---1-----1------1-|---2----2-----2---|---2-----2------2--| 
|-------------------------|-2-----2------2---|-4----4----4------|-0-----0-----0---| 
|-0-----0-------0-------|--------------------|--------------------|---------------| 
|-------------------------|--------------------|--------------------|-------------| 


Chorus: 
|-----------------------|-----------------------|--------------------|----------------| 
|-------3------2-------|------3------2-------|-----3------2------|-----3-----2--------| 
|-----------------------|-----------------------|--2------2-----2--|---2-----2-----2--| 
|----4------4------4--|----4------4-----4--|-0-----0-----0-----|-0-----0-----0--------| 
|-2------2------2-----|-2------2-----2-----|---------------------|--------------------| 
|-----------------------|----------------------|---------------------|----------------| 

|--------------------|----------------------|-----------------|-----------------------| 
|------------3----2-|------------3----2--|----0-----0-----|----0----------------------| 
|-----2--------------|-----2--------------|---1----1----1--|--1--1--------------------| 
|---4-----4---------|---4-----4----------|-2----2----2---|-2-----2--------------------| 
|--------------------|---------------------|-----------------|------------------------| 
|-2-----2-----2----|-2-----2------2----|-----------------|----------------------------| 


 
	  

there isn't a video lesson for this song

request
Search Paypal
auto scroll beats size up size down change color hide chords drawings
tab show chords e-chords YouTube Clip e-chords hide all tabs e-chords go to top tab