Bibio

Haikuesque When She Laughs

Bibio

tabs

by  BRUNBLAZKOWSKI

save to print version add songbook text version e-mail correct tuner
chordsukulelecavacokeyboardtabbassdrumsharmonicaflute Guitar Pro
close

there isn't a video lesson for this song

chords

Haikuesque When She Laughs

	  		
Intro  


e |-5---5-------|-1-----1-----|-------------|-3-----3-----| 
C |-------0-----|-------------|-------0-----|-------------| 
A |---------0---|-----0---0---|-8---8-------|-----0---0---| 
D |-8-----------|-0-----------|-7-------5-3-|-2-----------| 
Bb|-------------|-------------|-------------|-------------| 
D |-------------|-------------|-------------|-------------| 

e |-------------|-------1---1-|-------------|-------------| 
C |-------0-----|-----0-------|-------0-----|-------0-----| 
A |-0---0---0---|-0h1-----0---|-8---8---8---|-0---0---0---| 
D |-------------|-0-----------|-7-------5-3-|-2-----------| 
Bb|-0-----------|-------------|-------------|-------------| 
D |-------------|-------------|-------------|-------------| 

e |-5---5-------|-------1-----|-------------|-3-----3-----| 
C |-------0-----|-----0-------|-------0-----|-------------| 
A |---------0---|-0h1-----0---|-8---8-------|-----0---0---| 
D |-8-----------|-0-----------|-7-------5-3-|-2-----------| 
Bb|-------------|-------------|-------------|-------------| 
D |-------------|-------------|-------------|-------------| 

e |-------------|-1-----1-----|-------------|-------------| 
C |-0-----0-----|-------------|-----0-------|-------0-----| 
A |-----0---0---|-----0---0---|-------0-----|-0---0---0---| 
D |-------------|-0-----------|-7-------5-3-|-2-----------| 
Bb|-0-----------|-------------|-------------|-------------| 
D |-------------|-------------|-------------|-------------| 


verse 1 

e |-5---5-------|-1-----1-----|-------------|-3-----3-----| 
C |-------0-----|-------------|-------0-----|-------------| 
A |---------0---|-----0---0---|-8---8-------|-----0---0---| 
D |-8-----------|-0-----------|-7-------5-3-|-2-----------| 
Bb|-------------|-------------|-------------|-------------| 
D |-------------|-------------|-------------|-------------| 
  When she laughs,          The piano in the hall, 

e |-------------|-1-----1-----|-------------|-------------| 
C |-------0-----|-------------|-------------|-------0-----| 
A |-0---0---0---|----0----0---|-8---8-0-----|-0---0---0---| 
D |-------------|-0-----------|-7-------5-3-|-2---------2-| 
Bb|-0-----------|-------------|-------------|-------------| 
D |-------------|-------------|-------------|-------------| 
  Plays a quiet note 

e |-5---5-------|-1-----1-----|-------------|-3-----3-----| 
C |-------0-----|-------------|-5---5---5-5-|-------------| 
A |---------0---|-----0---0---|-------------|-----0---0---| 
D |-8-----------|-0-----------|-7-------5-3-|-2-----------| 
Bb|-------------|-------------|-------------|-------------| 
D |-------------|-------------|-------------|-------------| 
  Waterfalls,              Turning gentle into rough, 

e |-------------|-1-----1-----|-------------|-------------| 
C |-------0-----|-------------|-------0-----|-------0-----| 
A |-0---0---0---|----0----0---|-8---8-------|-0---0---0---| 
D |-------------|-0-----------|-7-------5-3-|-2---------2-| 
Bb|-0-----------|-------------|-------------|-------------| 
D |-------------|-------------|-------------|-------------| 
  And gentle again, 

e |-5---5-------|-1-----1-----|-------------|-3-----3-----| 
C |-------0-----|-------------|-------0-----|-------------| 
A |---------0---|-----0---0---|-8---8-------|-----0---0---| 
D |-8-----------|-0-----------|-7-------5-3-|-2-----------| 
Bb|-------------|-------------|-------------|-------------| 
D |-------------|-------------|-------------|-------------| 
  Morning dew,             Washes yesterday's garden, 

e |-------------|-1-----1-----|-------------|-------------| 
C |-0-----0-----|-------------|-------0-----|-------0-----| 
A |-----0---0---|-----0---0---|-----8-------|-0---0---0---| 
D |-------------|-0-----------|-7-------5-3-|-2---------2-| 
Bb|-0-----------|-------------|-------------|-------------| 
D |-------------|-------------|-------------|-------------| 
  Ready for today 

e |-5---5-------|-1-----1-----|-------------|-3-----3-----| 
C |-------0-----|-------------|-5---5---5-5-|-------------| 
A |---------0---|-----0---0---|-------------|-----0---0---| 
D |-8-----------|-0-----------|-7-------5-3-|-2-----------| 
Bb|-------------|-------------|-------------|-------------| 
D |-------------|-------------|-------------|-------------| 
  Rocking Chair,           Is still without a rocker,       

e |-------------|-1-----1-----|-------------|-------------| 
C |-0-----0-----|-------------|-------0-----|-------0-----| 
A |-----0---0---|-----0---0---|-----8-------|-0---0---0---| 
D |-------------|-0-----------|-7-------5-3-|-2-----------| 
Bb|-0-----------|-------------|-------------|-------------| 
D |-------------|-------------|-------------|-------------| 
  But is still a chair 


verse 2 

e |-5---5-------|-1-----1-----|-------------|-3-----3-----| 
C |-------0-----|-------------|-------0-----|-------------| 
A |---------0---|-----0---0---|-8---8-------|-----0---0---| 
D |-8-----------|-0-----------|-7-------5-3-|-2-----------| 
Bb|-------------|-------------|-------------|-------------| 
D |-------------|-------------|-------------|-------------| 
  When she laughs,          The piano in the hall, 

e |-------------|-1-----1-----|-------------|-------------| 
C |-------0-----|-------------|-------------|-------0-----| 
A |-0---0---0---|----0----0---|-8---8-0-----|-0---0---0---| 
D |-------------|-0-----------|-7-------5-3-|-2---------2-| 
Bb|-0-----------|-------------|-------------|-------------| 
D |-------------|-------------|-------------|-------------| 
  Resonates a note 

e |-5---5-------|-1-----1-----|-------------|-3-----3-----| 
C |-------0-----|-------------|-5---5---5-5-|-------------| 
A |---------0---|-----0---0---|-------------|-----0---0---| 
D |-8-----------|-0-----------|-7-------5-3-|-2-----------| 
Bb|-------------|-------------|-------------|-------------| 
D |-------------|-------------|-------------|-------------| 
  Waterfalls,              Turning gentle into rough, 

e |-------------|-1-----1-----|-------------|-------------| 
C |-------0-----|-------------|-------0-----|-------0-----| 
A |-0---0---0---|----0----0---|-8---8-------|-0---0---0---| 
D |-------------|-0-----------|-7-------5-3-|-2---------2-| 
Bb|-0-----------|-------------|-------------|-------------| 
D |-------------|-------------|-------------|-------------| 
  And gentle again, 

e |-5---5-------|-1-----1-----|-------------|-3-----3-----| 
C |-------0-----|-------------|-------0-----|-------------| 
A |---------0---|-----0---0---|-8---8-------|-----0---0---| 
D |-8-----------|-0-----------|-7-------5-3-|-2-----------| 
Bb|-------------|-------------|-------------|-------------| 
D |-------------|-------------|-------------|-------------| 
  Morning dew,             Washes yesterday's garden, 

e |-------------|-1-----1-----|-------------|-------------| 
C |-0-----0-----|-------------|-------0-----|-------0-----| 
A |-----0---0---|-----0---0---|-----8-------|-0---0---0---| 
D |-------------|-0-----------|-7-------5-3-|-2---------2-| 
Bb|-0-----------|-------------|-------------|-------------| 
D |-------------|-------------|-------------|-------------| 
  Ready for today 

e |-5---5-------|-1-----1-----|-------------|-3-----3-----| 
C |-------0-----|-------------|-5---5---5-5-|-------------| 
A |---------0---|-----0---0---|-------------|-----0---0---| 
D |-8-----------|-0-----------|-7-------5-3-|-2-----------| 
Bb|-------------|-------------|-------------|-------------| 
D |-------------|-------------|-------------|-------------| 
  Rocking Chair,           Is still without a rocker,       

e |-------------|-1-----1-----|-------------|-------------| 
C |-0-----0-----|-------------|-------0-----|-------0-----| 
A |-----0---0---|-----0---0---|-----8-------|-0---0---0---| 
D |-------------|-0-----------|-7-------5-3-|-2-----------| 
Bb|-0-----------|-------------|-------------|-------------| 
D |-------------|-------------|-------------|-------------| 
  But is still a chair 

e |-5---5-------|-1-----1-----|-------------|-3-----3-----| 
C |-------0-----|-------------|-------0-----|-------------| 
A |---------0---|-----0---0---|-8---8-------|-----0---0---| 
D |-8-----------|-0-----------|-7-------5-3-|-2-----------| 
Bb|-------------|-------------|-------------|-------------| 
D |-------------|-------------|-------------|-------------| 
  When she laughs,          The piano in the hall, 

e |-------------|-1-----1-----|-------------|-------------| 
C |-------0-----|-------------|-------------|-------0-----| 
A |-0---0---0---|----0----0---|-----8-0-----|-0---0---0---| 
D |-------------|-0-----------|-7-------5-3-|-2---------2-| 
Bb|-0-----------|-------------|-------------|-------------| 
D |-------------|-------------|-------------|-------------| 
  Plays a quiet note 


Outro 

e |-------------|-------------|-------------|-------------| 
C |-------0-----|-------0-----|-------------|-------------| 
A |---0-----0---|---0-----0---|---0---0-----|-0-----------| 
D |-2---2-----2-|-2---2-----2-|-2---2---2---|-3-----------| 
Bb|-------------|-------------|-------------|-0-----------| 
D |-------------|-------------|-------------|-------------| 


************************************ 
   
| h   Hammer-on 

************************************ 
		  

See also:

tabs Sting - After The Rain Has Fallen tabs Kenny G - Dying Young tabs Duran Duran - Rio tabs Green Jelly - Three Little Pigs tabs Toto - Don't Chain My Heart tabs Toto - Home Of The Brave
e-chords

Other versions:

tabs Bibio - Haikuesque When She Laughs
auto scroll beats size up size down change color hide chords drawings
tab show chords e-chords YouTube Clip e-chords hide all tabs e-chords go to top tab

share