Bethel Music

home > Bethel Music

Till The Whole Earth Looks Like Heaven Tab

Bethel Music

Difficulty: nolevelnolevel

by educastilho

tuner correct add songbook print version text version save to e-mail
chordsukulelecavacokeyboardtabbassdrumsharmonicsflute Guitar Pro
chords

Till The Whole Earth Looks Like Heaven

  		
Intro 
e|--12-----10--12-----10-----------------------------------------------------| 
B|--10--10-----10--10--------------------------------------------------------| 
G|---9----------9------------------------------------------------------------| 
D|---------------------------------------------------------------------------| 
A|---------------------------------------------------------------------------| 
E|---------------------------------------------------------------------------| 

verse 1 
Swell chord inversions (See Chorus tab) 

Intro 
e|--12-----10--12-----10-----------------------------------------------------| 
B|--10--10-----10--10--------------------------------------------------------| 
G|---9----------9------------------------------------------------------------| 
D|---------------------------------------------------------------------------| 
A|---------------------------------------------------------------------------| 
E|---------------------------------------------------------------------------| 

verse 2 
e|---------------------------------------------------------------------------| 
B|-10---12--10-9-7--10-10----------------------------------------------------| 
G|--9----9-----------9--9----------------------------------------------------| 
D|---------------------------------------------------------------------------| 
A|---------------------------------------------------------------------------| 
E|---------------------------------------------------------------------------| 

Intro 
e|--12-----10--12-----10-----------------------------------------------------| 
B|--10--10-----10--10--------------------------------------------------------| 
G|---9----------9------------------------------------------------------------| 
D|---------------------------------------------------------------------------| 
A|---------------------------------------------------------------------------| 
E|---------------------------------------------------------------------------| 


Chorus 
    D    A E  D   A E  D.   A  E  D   A 
e|---------------------------------------------------------------------------| 
B|-10---10-9-10---10-9-10---10-9-10--10--------------------------------------| 
G|--7----9-9--7----9-9--7----9-9--7---9--------------------------------------| 
D|--7----7-7--7----7-7--7----7-7--7---7--------------------------------------| 
A|---------------------------------------------------------------------------| 
E|---------------------------------------------------------------------------| 


All the picking parts can basically be played by using the chords voicings in the Chorus 
	  

Full key step upFull key step up
Half key step upHalf key step up
Half key step downHalf key step down
Full key step downFull key step down
Search Paypal
auto scroll beats size up size down change color hide chords drawings
tab show chords e-chords YouTube Clip e-chords hide all tabs e-chords go to top tab