Bethel Music

home > Bethel Music

Take Courage Tab

Bethel Music

Difficulty: nolevelnolevel

by tarikike

tuner correct add songbook print version text version save to e-mail
chordsukulelecavacokeyboardtabbassdrumsharmonicsflute Guitar Pro
chords

Take Courage

  		Intro 

e|-10------10-10-----10-12-----10--------------------------------------------| 
B|---12-12------12-12-----12-12----------13-12-------------------------------| 
G|----------------------------------12/14------------------------------------| 
D|--------------------------------10-----------------------------------------| 
A|---------------------------------------------------------------------------| 
E|---------------------------------------------------------------------------| 

e|-10------10-10-----10-12-----10--------------------------------------------| 
B|---12-12------12-12-----12-12----------13-12-------------------------------| 
G|----------------------------------12/14------------------------------------| 
D|--------------------------------10-----------------------------------------| 
A|---------------------------------------------------------------------------| 
E|---------------------------------------------------------------------------| 


verse 1 

e|----------------| 
B|----------------| 
G|--4-------------| 
D|---5h7----5h7---| 
A|-5----7-5-------| 
E|----------------| 


Chorus 

e|----------------------------------| 
B|----------------------------------| 
G|----------------------------------| 
D|-5--7/9----5--5-5-7/9---5---------| 
A|--------9-5--5-------9-5----------| 
E|----------------------------------| 


Interlude 

e|-10------10-10-----10-12-----10--------------------------------------------| 
B|---12-12------12-12-----12-12----------13-12-------------------------------| 
G|----------------------------------12/14------------------------------------| 
D|--------------------------------10-----------------------------------------| 
A|---------------------------------------------------------------------------| 
E|---------------------------------------------------------------------------| 


verse 2 

e|---------------------------------------------------------------------------| 
B|------------------------12-------------------------------------------------| 
G|---12h14-------12h14------12h14-------12h14--------------------------------| 
D|-12------14-12-------12---------14-12--------------------------------------| 
A|---------------------------------------------------------------------------| 
E|---------------------------------------------------------------------------| 


Chorus 

e|-----------------------------------------| 
B|-8-10/12-----8--8--8-10/12--8----8h10----| 
G|--------11--7--7--7--------7--7----------| 
D|-----------------------------------------|x2 
A|-----------------------------------------| 
E|-----------------------------------------| 


Bridge 

e|----------------------------------------------------|--------10------------| 
B|--5---8----10--5----8-----12--5---8----12-10-8-7-8--|----------------------| 
G|----------------------------------------------------|----------------------| 
D|-5--/9--/12---5---/9---/12---5--/9--/12-------------|-12-12----------------|x11 
A|----------------------------------------------------|----------------------| 
E|----------------------------------------------------|----------------------| 

e|-------10------10-------10-------------------------------------------------| 
B|------------------10-10----------------------------------------------------| 
G|-11-11----12-12------------12-12-12-12-12-12--12--14-14-14-14-12-12-12-12--| 
D|---------------------------------------------------------------------------| 
A|---------------------------------------------------------------------------| 
E|---------------------------------------------------------------------------| 


Chorus 

e|-------3--3--------| 
B|-8--7--0--0--5-----| 
G|-9--7--0--0--5-----| 
D|-x--x--0--0--x-----|x2 
A|-7--5--x--x--3-----| 
E|-------3--x--------| 



Outroswells 

e|----------| 
B|-8-7-5-7--| 
G|-9-7-5-7--| 
D|----------| 
A|----------| 
E|----------| 



************************************ 

| x   Dead note 
| h   Hammer-on 
| /   Slide up 

************************************ 
	  

Search Paypal
auto scroll beats size up size down change color hide chords drawings
tab show chords e-chords YouTube Clip e-chords hide all tabs e-chords go to top tab