Bethel Music

home > Bethel Music

Closer Tab

Bethel Music

Difficulty: nolevelnolevel

by gustsilva

tuner correct add songbook print version text version save to e-mail
chordsukulelecavacokeyboardtabbassdrumsharmonicsflute Guitar Pro
chords

Closer

  		
Intro 
e|---------------------------------------| 
B|---10-9---9-7--5------10-9---9-7-9-7-5-| 
G|---------------------------------------| 
D|---------------------------------------| 
A|---------------------------------------| 
E|---------------------------------------| 

Verse 
(No guitar) 

Chorus 
e|-12---------12--------12--------12--------12--------12--------12--------14-| 
B|---12-10-9----12-10-9---12-10-9---12-10-9---12-10-9---12-10-9---12-10-9----| 
G|---------------------------------------------------------------------------| 
D|---------------------------------------------------------------------------| 
A|---------------------------------------------------------------------------| 
E|---------------------------------------------------------------------------| 

Bridge 
Guitar 1 
e|--5--5--4--4--2--2--4--4-| 
B|---5--5--5--5--5--5--5--5| 
G|-------------------------| 
D|-------------------------| 
A|-------------------------| 
E|-------------------------| 

Guitar 2 
e|--7----7----| 
B|----9----9--| 
G|------------| 
D|------------| 
A|------------| 
E|------------| 
	  

Search Paypal
auto scroll beats size up size down change color hide chords drawings
tab show chords e-chords YouTube Clip e-chords hide all tabs e-chords go to top tab