Berri Txarrak

home > Berri Txarrak

Makuluak Tab

Berri Txarrak

Difficulty: nolevelnolevel

by victborges

tuner correct add songbook print version text version save to e-mail
chordsukulelecavacokeyboardtabbassdrumsharmonicsflute Guitar Pro
chords

Makuluak

  		
D|-----------------------------------------------| 
A|-----------------------------------------------| 
F|--2-2-2-2--2-2---/9--9--7-7-7-7---/9--9-10-10--|  
C|--0-0-0-0--0-0----0--0--0-0-0-0----0--0--0--0--| x 4 
G|--0-0-0-0--x-x----x--x--x-x-x-x----x--x--x--x--| 
C|--0-0-0-0--3-3--/10-10--8-8-8-8--/10-10-10-10--| 

  Zazpi urte geldirik iragan nituen nik 
D|-------------------------------------------| 
A|-------------------------------------------| 
F|--2-2-2-2-2-2--2-2--3-3-3-3---/9--9-10-10--|  
C|--0-0-0-0-0-0--0-0--0-0-0-0----0--0--0--0--| 
G|--0-0-0-0-0-0--x-x--x-x-x-x----x--x--x--x--| 
C|--0-0-0-0-0-0--3-3--5-5-5-5--/10-10-10-10--| 

  ezin eman pausorik... 
D|-------------------------------------------| 
A|-------------------------------------------| 
F|--2-2-2-2-2-2--2-2--3-3-3-3--/12-12-12-12--|  
C|--0-0-0-0-0-0--0-0--0-0-0-0---13-13-13-13--| 
G|--0-0-0-0-0-0--x-x--x-x-x-x----x--x--x--x--| 
C|--0-0-0-0-0-0--3-3--5-5-5-5--/13-13-13-13--| 

  jo sendagilearengana, hark berehala galdetu zidan 
D|-------------------------------------------| 
A|-------------------------------------------| 
F|--2-2-2-2-2-2--2-2--3-3-3-3---/9--9-10-10--|  
C|--0-0-0-0-0-0--0-0--0-0-0-0----0--0--0--0--| 
G|--0-0-0-0-0-0--x-x--x-x-x-x----x--x--x--x--| 
C|--0-0-0-0-0-0--3-3--5-5-5-5--/10-10-10-10--| 

  zertarako makuluak? nik erantzun elbarria 
D|-------------------------------------------| 
A|-------------------------------------------| 
F|--2-2-2-2-2-2--2-2--3-3-3-3--/12-12-12-12--|  
C|--0-0-0-0-0-0--0-0--0-0-0-0---13-13-13-13--| 
G|--0-0-0-0-0-0--x-x--x-x-x-x----x--x--x--x--| 
C|--0-0-0-0-0-0--3-3--5-5-5-5--/13-13-13-13--| 

  ...naiz           ~~~~~~~~~~~~~~~ (vibrato) 
D|-----------------------------------| 
A|-----------------------------------| 
F|-----------------------------------|  
C|--7-7-7-7-7-7-7-7-6-6-6-6-6-6-6-6--|     x 2 
G|--5-5-5-5-5-5-5-5-5-5-5-5-5-5-5-5--| 
C|--0-0-0-0-0-0-0-0-0-0-0-0-0-0-0-0--| 


  Ez nau batere harritzen, izan ziren haren hitzak 
D|-------------------------------------------| 
A|-------------------------------------------| 
F|--2-2-2-2-2-2--2-2--3-3-3-3---/9--9-10-10--|  
C|--0-0-0-0-0-0--0-0--0-0-0-0----0--0--0--0--| 
G|--0-0-0-0-0-0--x-x--x-x-x-x----x--x--x--x--| 
C|--0-0-0-0-0-0--3-3--5-5-5-5--/10-10-10-10--| 

  saiatu zaitez ibiltzen 
D|-------------------------------------------| 
A|-------------------------------------------| 
F|--2-2-2-2-2-2--2-2--3-3-3-3--/12-12-12-12--|  
C|--0-0-0-0-0-0--0-0--0-0-0-0---13-13-13-13--| 
G|--0-0-0-0-0-0--x-x--x-x-x-x----x--x--x--x--| 
C|--0-0-0-0-0-0--3-3--5-5-5-5--/13-13-13-13--| 

  tramankulu hauek dira ibiltzen uzten ez dizutenak 
D|-------------------------------------------| 
A|-------------------------------------------| 
F|--2-2-2-2-2-2--2-2--3-3-3-3---/9--9-10-10--|  
C|--0-0-0-0-0-0--0-0--0-0-0-0----0--0--0--0--| 
G|--0-0-0-0-0-0--x-x--x-x-x-x----x--x--x--x--| 
C|--0-0-0-0-0-0--3-3--5-5-5-5--/10-10-10-10--| 

  tramankulu hauek dira, zure traba nagusia 
D|-------------------------------------------| 
A|-------------------------------------------| 
F|--2-2-2-2-2-2--2-2--3-3-3-3--/12-12-12-12--|  
C|--0-0-0-0-0-0--0-0--0-0-0-0---13-13-13-13--| 
G|--0-0-0-0-0-0--x-x--x-x-x-x----x--x--x--x--| 
C|--0-0-0-0-0-0--3-3--5-5-5-5--/13-13-13-13--| 

  Ausartu zaite, saia ibiltzen, narras zaite lau hankatan 
D|------------------------------------------------------| 
A|--10-10-10-10-10-10--10-10--10-10-10-10--10-10-10-10--| 
F|---x--x--x--x--x--x---x--x---x--x--x--x---x--x--x--x--|  
C|--10-10-10-10-10-10--10-10--10-10-10-10--10-10-10-10--| x 2 
G|---8--8--8--8--8--8---7--7---8--8--8--8---x--x--x--x--| 
C|----------------------7--7---8--8--8--8--10-10-10-10--| 

  Munstro bat zirudien, barrezka ozen krudel 
D|-------------------------------------------| 
A|-------------------------------------------| 
F|--2-2-2-2-2-2--2-2--3-3-3-3---/9--9-10-10--|  
C|--0-0-0-0-0-0--0-0--0-0-0-0----0--0--0--0--| 
G|--0-0-0-0-0-0--x-x--x-x-x-x----x--x--x--x--| 
C|--0-0-0-0-0-0--3-3--5-5-5-5--/10-10-10-10--| 

  bi makuluak hartzen 
D|-------------------------------------------| 
A|-------------------------------------------| 
F|--2-2-2-2-2-2--2-2--3-3-3-3--/12-12-12-12--|  
C|--0-0-0-0-0-0--0-0--0-0-0-0---13-13-13-13--| 
G|--0-0-0-0-0-0--x-x--x-x-x-x----x--x--x--x--| 
C|--0-0-0-0-0-0--3-3--5-5-5-5--/13-13-13-13--| 

  nire bizkarraren kontra puskatzeaz batera 
D|-------------------------------------------| 
A|-------------------------------------------| 
F|--2-2-2-2-2-2--2-2--3-3-3-3---/9--9-10-10--|  
C|--0-0-0-0-0-0--0-0--0-0-0-0----0--0--0--0--| 
G|--0-0-0-0-0-0--x-x--x-x-x-x----x--x--x--x--| 
C|--0-0-0-0-0-0--3-3--5-5-5-5--/10-10-10-10--| 

  morroiak barreari ezin eutsiz, bota zituen sutara 
D|-------------------------------------------| 
A|-------------------------------------------| 
F|--2-2-2-2-2-2--2-2--3-3-3-3--/12-12-12-12--|  
C|--0-0-0-0-0-0--0-0--0-0-0-0---13-13-13-13--| 
G|--0-0-0-0-0-0--x-x--x-x-x-x----x--x--x--x--| 
C|--0-0-0-0-0-0--3-3--5-5-5-5--/13-13-13-13--| 

  Orain banabil, orain badakit... 
D|-------------------------------------------| 
A|--10-10-10-10-10-10--10-10--10-10-10-10--10-10-10-10--| 
F|---x--x--x--x--x--x---x--x---x--x--x--x---x--x--x--x--|  
C|--10-10-10-10-10-10--10-10--10-10-10-10--10-10-10-10--| x 4 
G|---8--8--8--8--8--8---7--7---8--8--8--8---x--x--x--x--| 
C|----------------------7--7---8--8--8--8--10-10-10-10--| 

  zenbaitetan bakarrik 
D|------------------------------------------------| 
A|--6-6-6-6-6-6-----------------------------------| 
F|--x-x-x-x-x-x-----------------------------------|  
C|--7-7-7-7-7-7--10-10--12-12-12-12--14-14-14-14--|  
G|--5-5-5-5-5-5---7--7---8--8--8--8--10-10-10-10--| 
C|----------------7--7---8--8--8--8--10-10-10-10--| 

  makilak ikustean 
D|---------------------------------------------| 
A|--6-6-6-8-8-6-6------------------------------| 
F|--x-x-x-x-x-x-x------------------------------|  
C|--7-7-7-7-7-7-7-0--12-12-12-12--14-14-14-14--|  
G|--5-5-5-5-5-5-5-0---8--8--8--8--10-10-10-10--| 
C|----------------0---8--8--8--8--10-10-10-10--| 

  ordu batzuk soilik 
D|---6-6-6-6-6-6-5-5---------------------------| 
A|---x-x-x-x-x-x-x-x---------------------------| 
F|---7-7-7-7-7-7-7-7---------------------------|  
C|---8-8-8-8-8-8-8-8--14-14-14-14-14-14-14-14--|  
G|---5-5-5-5-5-5-5-5--10-10-10-10-12-12-13-13--| 
C|---5-5-5-5-5-5-5-5--10-10-10-10-10-10-10-10--| 

  motelago.. 
D|--6-6-6-6-6-6-5-5--| 
A|--x-x-x-x-x-x-x-x--| 
F|--7-7-7-7-7-7-7-7--|  
C|--8-8-8-8-8-8-8-8--|  
G|--5-5-5-5-5-5-5-5--| 
C|--5-5-5-5-5-5-5-5--| 
   
  ..nabil 
D|---------------------------------------------------------------------------------------| 
A|---------------------------------------------------------------------------------------| 
F|---------------------------------------------------------------------------------------|  
C|--14-14-14-14-14-14-14-14-14-14-14-14-14-14-14-14-14-14-14-14-14-14-14-14-14-14-14-14--|  
G|--10-10-10-10-10-10-10-10-12-12-12-12-12-12-12-12-13-13-13-13-13-13-13-13-13-13-13-13--| 
C|--10-10-10-10-10-10-10-10-10-10-10-10-10-10-10-10-10-10-10-10-10-10-10-10-10-10-10-10--| 

  baina ibili 
D|---------------------------| 
A|--10----10----10----10-----| 
F|---x--x--x--x--x--x--x--x--|  
C|--10-10-10-10-10-10-10-10--|  
G|---8--8--8--8--8--8--8--8--| 
C|---------------------------| 

  banabil 
D|---------------------------| 
A|---0-----0-----0-----0-----| 
F|---9--9--9--9--9--9--9--9--|  
C|--10-10-10-10-10-10-10-10--|  
G|---0--0--0--0--0--0--0--0--| 
C|---------------------------|                  

  orain 
D|---------------------------| 
A|---------------------------| 
F|--10----10----10----10-----|  
C|--10-10-10-10-10-10-10-10--|  
G|---8--8--8--8--8--8--8--8--| 
C|---8--8--8--8--8--8--8--8--| 

  ... 
D|-----------------------| 
A|-----------------------| 
F|--6-6-6-6-6-6-----8----|   
C|--7-7-7-7-7-7---10-10--|  
G|--5-5-5-5-5-5-/7-------| 
C|--0-0-0-0-0-0----------| 

D|------| 
A|--10--| 
F|---x--|   
C|--10--|  
G|---8--| 
C|------| 
	  

Search Paypal
auto scroll beats size up size down change color hide chords drawings
tab show chords e-chords YouTube Clip e-chords hide all tabs e-chords go to top tab