save to print version add songbook text version e-mail correct tuner
chordsukulelecavacokeyboardtabbassdrumsharmonicaflute Guitar Pro
close

there isn't a video lesson for this song

chords

Matador

	  		
e|---------------------------------------------------------------------------| 
B|----------------------1-----------0----0-------------------3----------3-2-2| 
G|--2-----4--2--2--2-------2--0-----------------0--------------------1-------| 
D|-----3--------------2----------4-----------------2--0--------4--3----------| 
A|-------------------------------------------2-----------4-------------------| 
E|---------------------------------------------------------------------------| 

e|---------------------------------------------------------------------------| 
B|-------------------------1------------0------------------------------------| 
G|--2-----4--2--2--2--2-------2--0------------0------------------------------| 
D|-----3----------------2------------4-----------2--0-------0-----0-0-----0--| 
A|-----------------------------------------2-------------4-----4-------4-----| 
E|---------------------------------------------------------------------------| 

e|---------------------------------------------------------------------------| 
B|--------------------------------------0-----------------0--3--2--0---------| 
G|-----------------0-----------------0-----2--2--1--1--2--------------2--2---| 
D|--4--------0--2-----4--4--2--2--4------------------------------------------| 
A|-----4--4------------------------------------------------------------------| 
E|---------------------------------------------------------------------------| 

e|---------------------------------------------------------------------------| 
B|---------------------------0-----------------1----------0--0---------------| 
G|--------------0---2--2--------2--2--2--2-------2--0--------------0---------| 
D|--------0-2-4-----------4-----------------2----------4--------------2------| 
A|--0-2-4-------------------------------------------------------2------------| 
E|---------------------------------------------------------------------------| 

e|---------------------------------------------------------------------------| 
B|---------------------------------------------------------------------------| 
G|---------------------------------------------------------------------------| 
D|--0-----0--0---0-----------------------------------------------------------| 
A|-----4-------4-------------------------------------------------------------| 
E|---------------------------------------------------------------------------|  
		  

See also:

tabs Bent Fabricius Bjerre - Matador tabs Michael Learns To Rock - That's Why
e-chords

Other versions:

tabs Bent Fabricius Bjerre - Matador
auto scroll beats size up size down change color hide chords drawings
tab show chords e-chords YouTube Clip e-chords hide all tabs e-chords go to top tab

share