Benjamin Francis Leftwich

home > Benjamin Francis L...

Butterfly Culture Tab

Benjamin Francis Leftwich

Difficulty: ExpertExpert

by joaoewerton

tuner correct add songbook print version text version save to e-mail
chordsukulelecavacokeyboardtabbassdrumsharmonicsflute Guitar Pro
chords

Butterfly Culture

  		


e|---------------------------------------------------------------| 
B|------0---------0----------0-----------0-----------------------| 
G|-----2-2--2----2-2--2-----2-2---------2--2--2------------------| 
D|---0-----0---0-----0-----0----0------------0-------------------| 
A|--2---------0--------------------------------------------------| 
E|------------------------2--------2-2h3-------------------------| 

e|-----0---------0-----------------------------------------------| 
B|----3-----------3-----------3-----------3----------------------| 
G|---2---2-----2----2-------2--2---------2---2-2-----------------| 
D|--0---0-----0----0-------0----0-------------0------------------| 
A|-2---------0---------------------------------------------------| 
E|-----------------------2-----------2h3-------------------------| 
    Even though..                                                      
E|---------------------------------------------------------------| 
B|----0--------0----------0---------0----------0--------0--------| 
G|---2-2-2----2-2-2------2-2-2-----2-2-2------2-2-2----2-2-2-----| 
D|--0---0----0---0------0---0-----0---0------0---0----0---0------| 
A|-2--------0-------------------------------2--------0-----------| 
E|---------------------2---------3-------------------------------| 
                                           Even while.. 
e|---------------------------------------------------------------| 
B|-----0--------0---------0--------0-------0--------0------------| 
G|----2-2------2-2-3-----2-2-2----2-2-----2-2-2----2-2-0---------| 
D|---0------------0-----0---0----0---2---0---0----0---0----------| 
A|---------------------2--------0--------------------------------| 
E|--2-----2-2h3-------------------------2--------3---------------| 
        Your head?                                    
e|---------------------------------------------------------------| 
B|----0--------0---------0----------0------------3--------3------| 
G|---2-2-2----2-2-2-----2-2-2------2-2-2--------2-2-2----2-2-2---| 
D|--0---0----0---0-----0---0------0---0--------0---0----0---0----| 
A|-2--------0---------------------------------2--------0---------| 
E|--------------------2--------2h3-------------------------------| 
                                       Where we work... 
e|---------------------------------------------------------------| 
B|---3--------3----------3--------3---------3--------3-----------| 
G|--2-2-2----2-2-2------2-2-2----2-2-2-----2-2-2----2-2-2--------| 
D|-0---0----0---0------0---0----0---0-----0---0----0---0---------| 
A|--------------------2--------0---------------------------------| 
E|2--------3----------------------------2---------3--------------| 
      God?                                                  
e|---------------------------------------------------------------| 
B|----3-------3--------3-------3-------------3---------3---------| 
G|---2-2-2---2-2-2----2-2-2---2-2-2--------2-2--2----2-2-2-------| 
D|--0---0---0---0----0---0---0---0-------------0----0---0--------| 
A|-2-------0---------------------------0h2--------0--------------| 
E|------------------2-------3------------------------------------| 

e|---------------------------------------------------------------| 
B|----3--------3-----------0--------0--------0-------0-----------| 
G|---2-2-2----2-2---------2-2-2----2-2-2----2-2-2---2-2-2--------| 
D|--0---0----0---0-----------0----0---0----0---0---0---0---------| 
A|--------------------0h2--------2-------------------------------| 
E|-2--------3-----------------------------2-------3--------------| 
                                                               
e|------0-------0------------------------------------------------| 
B|-----3-3-------3-------3---------3------------0--------0-------| 
G|----2-------2----2----2-2-------2-2-2--------2-2-2----2-2-2----| 
D|-----------0----0----0-------------0--------0---0----0---0-----| 
A|-0h2------0--------------------------------2--------0----------| 
E|--------------------2-----2-2h3--------------------------------| 
                                         You?re still... 
e|---------------------------------------------------------------| 
B|----0--------0----------0--------0-------0---------0-----------| 
G|---2-2-2----2-2-2------2-2-2----2-2-2---2-2-2-----2-2-2--------| 
D|--0---0----0---0------0---0----0---0---0---0---------0---------| 
A|---------------------2--------0--------------------------------| 
E|-2--------3---------------------------2-------2h3--------------| 
      Even when the pills?                                 
e|---------------------------------------------------------------| 
B|----0--------0-------0---------0----------0--------0-----------| 
G|---2-2-2----2-2-2---2-2-2----2-2-2------2-2-2----2-2-2---------| 
D|--0---0----0---0---0---0----0---0------0---0----0---0----------| 
A|-2--------0---------------------------2--------0---------------| 
E|------------------2--------3-----------------------------------| 
                               Because I am a member.. 
e|---------------------------------------------------------------| 
B|-----0---------0----------3-------3-------3-------3------------| 
G|---2-2-2-----2-2-2------2-2-2---2-2-2---2-2-2---2-2-2----------| 
D|--0---0-----0---0------0---0---0---0---0---0---0---0-----------| 
A|----------------------2-------0--------------------------------| 
E|-2-------2h3--------------------------2-------3----------------| 
   God..                                                                       Distress 
e|---------------------------------------------------------------| 
B|----3--------3-------3-------3----------3--------3--------3----| 
G|---2-2-2---2-2-2---2-2-2---2-2-2------2-2-2----2-2-2----2-2-2--| 
D|--0---0---0---0---0---0---0---0----------0----0---0----0---0---| 
A|-2-------0-------------------------0h2-------0-----------------| 
E|-----------------2-------3----------------------------2--------| 


                        I am a member..                    God..                    Distress.. 
e|---------------------------------------------------------------| 
B|----3-------0--3--0--0--0--3--0--0--0--3--0--0--0--3--0--0-- 0-| 
G|---2-2-2----2--2--2--2--2--2--2--2--2--2--2--2--2--2--2--2--2--| 
D|--0---0--------------------------------------------------------| 
A|------------2--0--------2--0---------2--0-------- 2--0--------2| 
E|-3-----------------2--3--------2--3--------2--3--------2--3----| 
	  

Search Paypal
auto scroll beats size up size down change color hide chords drawings
tab show chords e-chords YouTube Clip e-chords hide all tabs e-chords go to top tab