Ben Howard

Dancing In The Dark

Ben Howard

tabs Expert expert

by  HUGO_RODRIGUES

save to print version add songbook text version e-mail correct tuner
chordsukulelecavacokeyboardtabbassdrumsharmonicaflute Guitar Pro
close

there isn't a video lesson for this song

chords

Dancing In The Dark

	  		 


C|------------------------------------------------------| 
G|------------------------------------------------------| 
G|------------------------------------------------------| 
C|-----0-----0---------0-----0---------0-----0----------| 
G|---5-----5-----5---5-----5-----5---5-----5-----5------| 
C|-0-----0-----0---0-----0-----0---0-----0-----0--------| 

  


C|------------------------------------------------------| 
G|------------------------------------------------------| 
G|------------------------------------------------------| 
C|-----0-----0---------0-----0---------0-----0----------| 
G|---5-----5-----5---5-----5-----5---5-----5-----5------| 
C|-0-----0-----0---0-----0-----0---0-----0-----0--------| 

    


C|------------------------------------------------------| 
G|------------------------------------------------------| 
G|------------------------------------------------------| 
C|-----0-----0---------0-----0---------0-----0----------| 
G|---5-----5-----5---5-----5-----5---5-----5-----5------| 
C|-0-----0-----0---0-----0-----0---0-----0-----0--------| 

                                       I GET UP IN THE 


C|------------------------------------------------------| 
G|------------------------------------------------------| 
G|------------------------------------------------------| 
C|-----0-----0---------0-----0---------0-----0----------| 
G|---5-----5-----5---5-----5-----5---4-----4-----0------| 
C|-0-----0-----0---0-----0-----0---0-----0-----0--------| 

   EVENING            AND I AIN'T GOT NOTHING TO SAY 


C|------------------------------------------------------| 
G|------------------------------------------------------| 
G|------------------------------------------------------| 
C|-----0-----0---------0-----0---------0-----0----------| 
G|---9-----9-----9---9-----9-----9---9-----9-----9------| 
C|-9-----9-----9---9-----9-----9---9-----9-----9--------| 

  I COME HOME IN THE MORNING       I GO TO BED 


C|------------------------------------------------------| 
G|------------------------------------------------------| 
G|-------------------------5---------------5------------| 
C|-----0-----0---------0---------0-----0---------0------| 
G|---9-----9-----9---5---------5-----5---------5--------| 
C|-9-----9-----9---5-----5---5-----5-----5---5----------| 

 FEELING THE SAME WAY, I AIN'T NOTHING BUT TIRED 


C|------------------------------------------------------| 
G|------------------------------------------------------| 
G|---------5---------------5---------------0------------| 
C|-----0---------0-----0---------0-----0---------0------| 
G|---5---------5-----5---------5-----5---------5--------| 
C|-5-----5---5-----5-----5---5-----0-----0---0----------| 

 MAN I'M JUST TIRED AND BORED WITH MYSELF,     HEY BABY 


C|------------------------------------------------------| 
G|------------------------------------------------------| 
G|------------------------------------------------------| 
C|-----0-----0---------0-----0---------0-----0----------| 
G|---5-----5-----5---5-----5-----5---4-----4-----0------| 
C|-0-----0-----0---0-----0-----0---0-----0-----0--------| 

                             I COULD USE A LITTLE HELP 


C|------------------------------------------------------| 
G|------------------------------------------------------| 
G|------------------------------------------------------| 
C|-----0-----0---------0-----0---------0-----0----------| 
G|---7-----7-----7---7-----7-----7---7-----7-----7------| 
C|-7-----7-----7---7-----7-----7---7-----7-----7--------| 

       CAN'T START A FIRE,            CAN'T START A FIRE 


C|------------------------------------------------------| 
G|------------------------------------------------------| 
G|------------------------------------------------------| 
C|-----0-----0---------5-----5---------5-----5----------| 
G|---7-----7-----7---5-----5-----5---5-----5-----5------| 
C|-7-----7-----7---5-----5-----5---5-----5-----5--------| 

    WITHOUT A SPARK,     THIS GUN'S FOR HIRE   


C|------------------------------------------------------| 
G|------------------------------------------------------| 
G|------------------------------------------------------| 
C|-----5-----5---------5-----5---------0-----0----------| 
G|---5-----5-----5---5-----5-----5---5-----5-----5------| 
C|-5-----5-----5---5-----5-----5---0-----0-----0--------| 

   EVEN IF WE'RE JUST DANCING IN THE DARK 
   

C|------------------------------------------------------| 
G|------------------------------------------------------| 
G|------------------------------------------------------| 
C|-----0-----0---------0-----0---------0-----0----------| 
G|---5-----5-----5---5-----5-----5---5-----5-----5------| 
C|-0-----0-----0---0-----0-----0---0-----0-----0--------| 




C|------------------------------------------------------| 
G|------------------------------------------------------| 
G|------------------------------------------------------| 
C|-----0-----0---------0-----0---------0-----0----------| 
G|---5-----5-----5---5-----5-----5---5-----5-----5------| 
C|-0-----0-----0---0-----0-----0---0-----0-----0--------| 

                                    MESSAGES JUST KEEP 


C|------------------------------------------------------| 
G|------------------------------------------------------| 
G|------------------------------------------------------| 
C|-----0-----0---------0-----0---------0-----0----------| 
G|---5-----5-----5---5-----5-----5---4-----4-----0------| 
C|-0-----0-----0---0-----0-----0---0-----0-----0--------| 

GETTING CLEARER,  RADIO'S ON & I'M MOVING ROUND THE PLACE 


C|------------------------------------------------------| 
G|------------------------------------------------------| 
G|------------------------------------------------------| 
C|-----0-----9---------9-----9---------9-----9----------| 
G|---9-----9-----9---9-----9-----9---9-----9-----9------| 
C|-9-----9-----9---9-----9-----9---9-----9-----9--------| 

 I CHECK MY LOOK IN THE MIRROR,   WANNA CHANGE MY HAIR 


C|------------------------------------------------------| 
G|------------------------------------------------------| 
G|-----------------------------------------5------------| 
C|-----9-----9---------0-----0---------0---------0------| 
G|---9-----9-----9---5-----5-----5---5---------5--------| 
C|-9-----9-----9---5-----5-----5---5-----5---5----------| 

  MY CLOTHES MY FACE, MAN I AIN'T GETTING NOWHERE, OH I'M 


C|------------------------------------------------------| 
G|------------------------------------------------------| 
G|---------5---------------5---------------0------------| 
C|-----0---------0-----0---------0-----0---------0------| 
G|---5---------5-----5---------5-----5---------5--------| 
C|-5-----5---5-----5-----5---5-----0-----0---0----------| 

JUST LIVING IN A DUMP LIKE THIS, THERE'S SOMETHING HAPPENING 
                                                   

C|------------------------------------------------------| 
G|------------------------------------------------------| 
G|---------0---------------0---------------0------------| 
C|-----0---------0-----0---------0-----0----------------| 
G|---5---------5-----5---------5-----4---------0--------| 
C|-0-----0---0-----0-----0---0-----0-----0---0----------| 

 SOMEWHERE                BABY I JUST KNOW THAT THERE IS 


C|------------------------------------------------------| 
G|------------------------------------------------------| 
G|---------7---------------7---------------7------------| 
C|-----0---------0-----0---------0-----0---------0------| 
G|---7---------7-----7---------7-----7---------7--------| 
C|-7-----7---7-----7-----7---7-----7-----7---7----------| 

 YOU CAN'T START A FIRE              CAN'T START A FIRE 


C|------------------------------------------------------| 
G|------------------------------------------------------| 
G|---------7---------------5---------------5------------| 
C|-----0---------0-----0---------0-----0---------0------| 
G|---7---------7-----5---------5-----5---------5--------| 
C|-7-----7---7-----5-----5---5-----5-----5---5----------| 

 WITHOUT A SPARK,  THIS GUN'S FOR HIRE 


C|------------------------------------------------------| 
G|------------------------------------------------------| 
G|---------5---------------5---------------0------------| 
C|-----0---------0-----0---------0-----0---------0------| 
G|---5---------5-----5---------5-----5---------5--------| 
C|-5-----5---5-----5-----5---5-----0-----0---0----------| 

   EVEN IF WE'RE JUST DANCING IN THE DARK 


C|------------------------------------------------------| 
G|------------------------------------------------------| 
G|------------------------------------------------------| 
C|-----0-----0---------0-----0---------0-----0----------| 
G|---5-----5-----5---5-----5-----5---5-----5-----5------| 
C|-0-----0-----0---0-----0-----0---0-----0-----0--------| 

                    EVEN IF WE'RE JUST DANCING IN THE  


C|------------------------------------------------------| 
G|------------------------------------------------------| 
G|------------------------------------------------------| 
C|-----0-----0---------0-----0---------9-----9----------| 
G|---5-----5-----5---5-----5-----0---9-----9-----9------| 
C|-0-----0-----0---0-----0-----0---9-----9-----9--------| 

 DARK                            WE SIT AROUND GETTING 


C|------------------------------------------------------| 
G|------------------------------------------------------| 
G|------------------------------------------------------| 
C|-----9-----9----7----5--------------------7-----------| 
G|---9-----9------7----5--------------------7-----------| 
C|-9-----9--------7----5--------------------7-----------| 

 OLDER                   THERE'S A JOKE SOMEWHERE, IT'S 


C|------------------------------------------------------| 
G|------------------------------------------------------| 
G|------------------------------------------------------| 
C|---------0-----0---------0-----0------7---5-----------| 
G|-------9-----9-----9---9-----9--------7---5-----------| 
C|-----9-----9-----9---9-----9------9---7---5-----------| 

 ON ME, SHAKE THIS WORLD OFF MY SHOULDERS,      COME ON 


C|------------------------------------------------------| 
G|------------------------------------------------------| 
G|------------------------------------------------------| 
C|---------7---------------------------0-----0----------| 
G|---------7-------------------------5-----5-----5------| 
C|---------7-----------------------0-----0-----0--------| 

   BABY LAUGHS ON ME                 STAY ON THE STREETS 


C|------------------------------------------------------| 
G|------------------------------------------------------| 
G|------------------------------------------------------| 
C|-----0-----0---------0-----0---------0-----0----------| 
G|---5-----5-----5---5-----5-----5---4-----4-----0------| 
C|-0-----0-----0---0-----0-----0---0-----0-----0--------| 

OF THIS TOWN        AND THEY'LL BE CARVING YOU UP ALRIGHT 


C|------------------------------------------------------| 
G|------------------------------------------------------| 
G|------------------------------------------------------| 
C|-----0-----9---------9-----9---------9-----9----------| 
G|---9-----9-----9---9-----9-----9---9-----9-----9------| 
C|-9-----9-----9---9-----9-----9---9-----9-----9--------| 

   SO YOU GOTTA STAY HUNGRY,  HEY BABY           IM JUST  


C|------------------------------------------------------| 
G|------------------------------------------------------| 
G|------------------------------------------------------| 
C|-----9-----9---------0-----0---------0-----0----------| 
G|---9-----9-----9---5-----5-----5---5-----5-----5------| 
C|-9-----9-----9---5-----5-----5---5-----5-----5--------| 

ABOUT STARVING TONIGHT, I'M DYING FOR SOME ACTION, IM SICK 


C|------------------------------------------------------| 
G|------------------------------------------------------| 
G|---------5---------------5---------------0------------| 
C|-----0---------0-----0---------0-----0---------0------| 
G|---5---------5-----5---------5-----5---------5--------| 
C|-5-----5---5-----5-----5---5-----0-----0---0----------| 

OF SITTING 'ROUND HERE TRYING TO WRITE THIS BOOK, I NEED A 


C|------------------------------------------------------| 
G|------------------------------------------------------| 
G|---------0---------------0---------------0------------| 
C|-----0---------0-----0---------0-----0---------0------| 
G|---5---------5-----5---------5-----5---------0--------| 
C|-0-----0---0-----0-----0---0-----0-----0---0----------| 

LOVE REACTION, COME ON BABY, BABY GIVE ME JUST ONE LOOK 


C|------------------------------------------------------| 
G|------------------------------------------------------| 
G|---------7---------------7---------------7------------| 
C|-----0---------0-----0---------0-----0---------0------| 
G|---7---------7-----7---------7-----7---------7--------| 
C|-7-----7---7-----7-----7---7-----7-----7---7----------| 

 YOU CAN'T START A FIRE              CAN'T START A FIRE 


C|------------------------------------------------------| 
G|------------------------------------------------------| 
G|---------7---------------5---------------5------------| 
C|-----0---------0-----0---------0-----0---------0------| 
G|---7---------7-----5---------5-----5---------5--------| 
C|-7-----7---7-----5-----5---5-----5-----5---5----------| 

 WITHOUT A SPARK,  THIS GUN'S FOR HIRE 


C|------------------------------------------------------| 
G|------------------------------------------------------| 
G|---------5---------------5---------------0------------| 
C|-----0---------0-----0---------0-----0---------0------| 
G|---5---------5-----5---------5-----5---------5--------| 
C|-5-----5---5-----5-----5---5-----0-----0---0----------| 

   EVEN IF WE'RE JUST DANCING IN THE DARK 


C|------------------------------------------------------| 
G|------------------------------------------------------| 
G|---------0---------------0---------------0------------| 
C|-----0---------0-----0---------0-----0---------0------| 
G|---5---------5-----5---------5-----5---------0--------| 
C|-0-----0---0-----0-----0---0-----0-----0---0----------| 

                       EVEN IF WE'RE JUST DANCING IN THE  


C|------------------------------------------------------| 
G|------------------------------------------------------| 
G|---------0---------------0---------------7------------| 
C|-----9-----9---9-----9-----9---9-----0---------0------| 
G|---9---------9-----9---------9-----7---------7--------| 
C|-9-----9---------9-----9---------7-----7---7----------| 

DARK 


C|------------------------------------------------------| 
G|------------------------------------------------------| 
G|---------5---------------5----------------------------| 
C|-----0---------0-----0---------0-----7----------------| 
G|---5---------5-----5---------5-------7----------------| 
C|-5-----5---5-----5-----5---5---------7----------------| 

                                   AND WE CAN'T START A  


C|------------------------------------------------------| 
G|------------------------------------------------------| 
G|------------------------------------------------------| 
C|------------------------------------------------------| 
G|------------------------------------------------------| 
C|------------------------------------------------------| 

  FIRE,    SITTING 'ROUND TRYING TO MEND A BROKEN HEART 


C|------------------------------------------------------| 
G|------------------------------------------------------| 
G|---------5---------------5---------------5------------| 
C|-----0---------0-----0---------0-----0---------0------| 
G|---5---------5-----5---------5-----5---------5--------| 
C|-5-----5---5-----5-----5---5-----5-----5---5----------| 

      THIS GUN'S FOR HIRE              EVEN IF WE'RE JUST 


C|------------------------------------------------------| 
G|------------------------------------------------------| 
G|---------5---------------7---------------7------------| 
C|-----0---------0-----0---------0-----0---------0------| 
G|---5---------5-----7---------7-----7---------7--------| 
C|-5-----5---5-----7-----7---7-----7-----7---7----------| 

  DANCING IN THE DARK, YOU CAN'T START A FIRE 


C|------------------------------------------------------| 
G|------------------------------------------------------| 
G|---------7---------------7---------------5------------| 
C|-----0---------0-----0---------0-----0---------0------| 
G|---7---------7-----7---------7-----5---------5--------| 
C|-7-----7---7-----7-----7---7-----5-----5---5----------| 

 WORRYING 'BOUT YOUR LITTLE WORLD FALLING APART, THIS GUNS 


C|------------------------------------------------------| 
G|------------------------------------------------------| 
G|---------5---------------5---------------5------------| 
C|-----0---------0-----0---------0-----0---------0------| 
G|---5---------5-----5---------5-----5---------5--------| 
C|-5-----5---5-----5-----5---5-----5-----5---5-----0----| 

  FOR HIRE,  EVEN IF WE'RE JUST DANCING IN THE DARK 
 
		  

Full key step upFull key step up
Half key step upHalf key step up
Half key step downHalf key step down
Full key step downFull key step down
hide glossary

See also:

tabs Blur - Coffee And TV tabs Ben Howard - Oats In The Water tabs Oasis - Stop crying your heart out tabs Jethro Tull - Mother Goose tabs Stone Temple Pilots - Interstate love song tabs Jethro Tull - Locomotive Breath Beginning
e-chords

Other versions:

tabs Ben Howard - Dancing In The Dark
auto scroll beats size up size down change color hide chords drawings
tab show chords e-chords YouTube Clip e-chords hide all tabs e-chords go to top tab

share