Being As An Ocean

The Poets Cry Out For More

Being As An Ocean

tabs

by  DEIVCAVALCANTI

save to print version add songbook text version e-mail correct tuner
chordsukulelecavacokeyboardtabbassdrumsharmonicaflute Guitar Pro
close

there isn't a video lesson for this song

chords

The Poets Cry Out For More

	  		
Tuning drop C

Guitar 1 
0:00-0:38 
|--------------------------------------------------------------------| 
|--------------------------------------------------------------------| 
|--------------------------------------------------------------------| 
|------6-------6-------6-------6--------6-------6-------6-------6----| 
|--4-4-4-4-4-4-4-4-4-4-4-4-4-4-4-4--2-2-2-2-2-2-2-2-2-2-2-2-2-2-2-2--| 
|--------------------------------------------------------------------| 
| 
|x3 

Guitar 2 
0:10-0:38 
|--------------------------------------| 
|--------------------------------------| 
|----9-8------------9-8----------------| 
|--9-----9--------9-----9--------------| 
|----------11-------------11~----9~----| 
|--------------------------------------| 
| 
|x2 

Guitar 1 
0:38-0:58 
|--------------------------------------------| 
|--17----14--12----16----17----14--12----16--| 
|--------------------------------------------| 
|--------------------------------------------| 
|--------------------------------------------| 
|--------------------------------------------| 

Chorus 
Guitars 1 & 2 
0:58-1:23 
|-------------------------------------| 
|-------------------------------------| 
|--666666-66666666-44444444-----------| 
|--666666-66666666-44444444-22222222--| 
|--444444-44444444-22222222-22222222--| 
|---------------------------22222222--| 
| 
|x4 

Guitar 1 
1:26-1:52 
|-----------------------------------------------| 
|-----------------------------------------------| 
|-----------------------------------------------| 
|--6-6-6-6-6-6-6-6-6-6-6-6-6-6-6h7-6h7----------| 
|-----------------------------------------------| 
|-----------------------------------------------| 
| 
|x4 

Guitar 2 
1:23-1:52 
|-------------------------------------------------------------------| 
|-------------------------------------------------------------------| 
|----9-8------------9-8------------9-8------------9-8---------------| 
|--9-----9--------9-----9--------9-----9--------9-----9-------------| 
|----------11-------------11-------------11-------------11---9---7--| 
|-------------------------------------------------------------------| 
| 
|x1 

Guitar 1 
1:52-2:05 
|---------------------------------| 
|--12h14-12h14--------------------| 
|---------------------14--13--11--| 
|--------------14--14-------------| 
|---------------------------------| 
|---------------------------------| 
| 
|x2 

Chorus 
Guitars 1 & 2 
2:05-2:30 
|-------------------------------------| 
|-------------------------------------| 
|--666666-66666666-44444444-----------| 
|--666666-66666666-44444444-22222222--| 
|--444444-44444444-22222222-22222222--| 
|---------------------------22222222--| 
| 
|x4 

Guitar 1 
2:34-2:59 
|----------------------------------------------------------------------------------| 
|----------------------------------------------------------------------------------| 
|--16-18-18-18-18-18\9-9-9-9-9-9-9-14-14-13-13-13-13-13-13-11-11-11-11-11-11-11-11-| 
|--x--x--x--x--x--x--x-x-x-x-x-x-x-x--x--x--x--x--x--x--x--x--x--x--x--x--x--x--x--| 
|--14/16-16-16-16-16\7-7-7-7-7-7-7-12-12-11-11-11-11-11-11-9--9--9--9--9--9--9--9--| 
|----------------------------------------------------------------------------------| 
| 
|x4 

Guitar 1 
2:59-End 
|--------------------------------------------------------| 
|--------------------------------------------------------| 
|--------------------------------------------------------| 
|--4h6-6-6-6-6--4h6-6-6-6-6--4-4--4-4-4-4----------------| 
|--4---4-4-4-4--4---4-4-4-4--2-2--2-2-2-2--2-2--2-2-2-2--| 
|------------------------------------------2-2--2-2-2-2--| 
		  

See also:

tabs Bon Jovi - It's My Life tabs Kiss - Forever tabs Aerosmith - Dream On tabs Foo Fighters - Everlong (acústico) tabs The Doors - People Are Strange tabs The Offspring - All I Want
e-chords

Other versions:

tabs Being As An Ocean - The Poets Cry Out For More
auto scroll beats size up size down change color hide chords drawings
tab show chords e-chords YouTube Clip e-chords hide all tabs e-chords go to top tab

share