Being As An Ocean

Deaths Great Black Wing Scrapes The Air

Being As An Ocean

tabs

by  ANDRSOUZA

save to print version add songbook text version e-mail correct tuner
chordsukulelecavacokeyboardtabbassdrumsharmonicaflute Guitar Pro
close

there isn't a video lesson for this song

chords

Deaths Great Black Wing Scrapes The Air

	  		Hey all :D hope you enjoy the tab. Please let me know down below if any changes need to  
be made! Thanks! 

 Guitar 1 full intro to verse (0:00-0:56) 
B-|----------------------------------------------------------------------------------------------| 
Gb|----------------------------------------------------------------------------------------------| 
D-|-------0~-------------0~--------0~------------0~---------------0~---------0~------------------| 
A-|---4------4-------4-----4---4-------------4------4---------4------4---4--------whole thing-x5-| 
E-|-2---2------2~--2---2-----2---2---22000---------------5~--------------------------------------| 
A-|----------------------------------------5---5------5~----2---2------2---2----22000------------| 

Guitar 2 to verse (no guitar in intro) Picking pattern is hard to figure out (0:23-0:56) 
B-|--------------------------------------------------| 
Gb|--------------------------------------------------| 
D-|-4444444~-4444444~-4444222------------------------| 
A-|-4444444~-4444444~-44442225555555~-2222222~2222000| 
E-|-2222222~-2222222~-22220005555555~-2222222~2222000| 
A-|--------------------------5555555~-2222222~2222000| 

Intro synth thing (0:11-0:21) 
D-|-----7~---------------------| 
A-|-9~------11~---7~-----------| 
E-|--------------------10~---9~| 
A-|----------------------------| 

Guitars Verse(0:57-1:23) 
B-|--------------------------------------------------| 
Gb|--------------------------------------------------| 
D-|-444----------------------------------------------| 
A-|-4445555555555552222222222222222------------------| 
E-|-2225555555555552222222222222222------------------| 
A-|----5555555555552222222222222222------------------| 

Guitar 1 Chorus plays these chords (1:24-1:48) 
B-|-------------------------------------------------------------------| 
Gb|-------------------------------------------------------------------| 
D-|------------------------4-4-44-4-4-2-2-22--------------------------| 
A-|------------------------4-4-44-4-4-2-2-224/5/4/0-------------------| 
E-|-5-5-55-5-5-2-2-22-0-2--2-2-22-2-2-0-0-00-------5/0----------------| 
A-|-5-5-55-5-5-2-2-22-0-2--------------------------Whole-thing-x4-----| 

Guitar 2 Chorus (1:24-2:22) 
B-|---------------------------------------------------------------| 
Gb|---------------------------------------------------------------| 
D-|------------------------------------2--------------------------| 
A-|---0~4/5/4/0----------2-----0/2---4---4-----2-5/4/0------------| 
E-|-------------5/0----2---0/2-----2-------2-0--------5/4/0-------| 
A-|-5----------------2--------------------------------------------| 

End Chorus synth thing (2:23-2:32) 
D-|-----7~---------------------| 
A-|-9~------11~---7~-----------| 
E-|--------------------10~---9~| 
A-|----------------------------| 

Bridge Part 1 (2:32-3:05) 
B-|------------------------------------------------------------------| 
Gb|------------------------------------------------------------------| 
D-|-4444444~-4444444~-4444222----------------------------------------| 
A-|-4444444~-4444444~-44442225555555~-2222222~2222000----------------| 
E-|-2222222~-2222222~-22220005555555~-2222222~2222000----------------| 
A-|--------------------------5555555~-2222222~2222000-whole-thing-x3-| 

Bridge Part 2 Guitar (3:06-3:50) 
B-|----------------------------------------------------| 
Gb|----------------------------------------------------| 
D-|-4444-44442-2-4444-44442----------------------------| 
A-|-4444-44442-2-4444-44442-x-5555-44444-4-4444-4444444| 
E-|-2222-22220-0-2222-22220-x-5555-55555-5-2222-2222000| 
A-|-------------------------x-5555-55555-5-2222-2222000| 

 Outro (3:50-4:18) you can also play this part half way through bridge part 3 
B-|----------------------------------------------------------------------------------------| 
Gb|---3--------3------------------------------------3-------3------------------------------| 
D-|-6---6----6---6-----------0--------0-----------6---6---6---6-----------0--------0-------| 
A-|--------------------2-2-4---4----4---4---------------------------2-2-4---4----4---4-----| 
E-|----------------------------------------------------------------------------------------| 
A-|-------0~-------0~-0-0--------5~-------2~-2000-------0~------0~-0-0--------5~-------2~--| 
		  

See also:

tabs Bon Jovi - It's My Life tabs Kiss - Forever tabs Aerosmith - Dream On tabs Foo Fighters - Everlong (acústico) tabs The Doors - People Are Strange tabs The Offspring - All I Want
e-chords

Other versions:

tabs Being As An Ocean - Deaths Great Black Wing Scrapes The Air
auto scroll beats size up size down change color hide chords drawings
tab show chords e-chords YouTube Clip e-chords hide all tabs e-chords go to top tab

share