Behind Crimson Eyes

This Is The End

Behind Crimson Eyes

tabs

save to print version add songbook text version e-mail correct tuner
chordsukulelecavacokeyboardtabbassdrumsharmonicaflute Guitar Pro
close

there isn't a video lesson for this song

chords

This Is The End

	  		This Is The End 
Tabbed by Al [email protected] 
 
 
D G C F A D 
 
 
INTRO 
 
 
Guitar 1 
|---------------------------------------| 
|---------------------------------------| 
|---------------------------------------| 
|---------------------------------------| 
|--2-2-2-2-2-2-2-2-2-5-5-5-5-5-5-5-5-5--| 
|--0-0-0-0-0-0-0-0-0-3-3-3-3-3-3-3-3-3--|x4 
 
 
Guitar 2 
|------10-----10---10--| 
|--/7h8----7h8--7h8----| 
|----------------------| 
|----------------------| 
|----------------------| 
|----------------------|x8 
 
 
VERSE 
 
 
Guitar 1 
|---------------------------------------| 
|---------------------------------------| 
|---------------------------------------| 
|---------------------------------------| 
|--22-------22-------55-------55--------| 
|--00-------00-------33-------33--------|x2 
pm ..       ..       ..       .. 
 
 
Guitar 2 
|----------------------------------------| 
|-----88-------88-------88------8h10p8r--| 
|--99---77--99---77--99---77--99---------| 
|----------------------------------------| 
|----------------------------------------| 
|----------------------------------------|** 
pm.............................. 
 
 
**play twice, second time dont play 8h10p8, just stop. 
 
 
PRE-CHORUS 
 
 
Guitar 1 ".....this is the end....." 
|------------------------------------------------------------------------| 
|------------------------------------------------------------------------| 
|------------------------------------------------------------------------| 
|--7-7-7-7-7-7-7-7-5-5-5-5-5-5-5-5-5-------------------------------------| 
|--5-5-5-5-5-5-5-5-3-3-3-3-3-3-3-3-3-5-5-5-5-5-5-5-5-4-4-4-4-4-4-4-4-2~--| 
|------------------------------------3-3-3-3-3-3-3-3-2-2-2-2-2-2-2-2-0~--| 
 
 
Guitar 2 - you tab it! 
 
 
CHORUS - Pretty much the same as the intro 
 
 
VERSE 2 - Just strum a D and let it ring. 
 
 
PRE-CHORUS 2 - same 
 
 
CHORUS 2 - same. Guitar 1 end with D 
 
 
Guitar 2 plays 
|-----------------| 
|--7-8-----7-8----| 
|------9-------7--| 
|-----------------| 
|-----------------| 
|-----------------| 
 
 
BRIDGE 
 
 
Guitar 1 
|-------------------------------|----------| 
|-------------------------------|----------| 
|-------------------------------|----------| 
|-------------------------------|----------| 
|--22---------22------7--5------|--7-5-2~--| 
|--00---------00------5--3--x4--|--5-3-0~--| 
pm ..         .. 
Guitar 2 - sorta the same palm mutey bit from the verse 
 
 
CHORUS 3 - same 
 
 
OUTRO 
 
 
Guitar 1 
|-----------------------------------------|-------------------| 
|-----------------------------------------|-------------------| 
|-----------------------------------------|-------------------| 
|--5-5-5-5-5-5-5-5-7-7-7-7-7-7-7-7-7------|-------------------| 
|--3-3-3-3-3-3-3-3-3-5-5-5-5-5-5-5-5------|--2~-----7--5--2~--| 
|-------------------------------------x2--|--0~-----5--3--0~--| 
pm                                                 ..    . 
Guitar 2 - intro lead bit, then pre bridge bit, end on D 
 
 

		  

Full key step upFull key step up
Half key step upHalf key step up
Half key step downHalf key step down
Full key step downFull key step down
hide glossary

See also:

tabs INXS - Dont change tabs Australian Crawl - Things Don't Seem tabs The Beautiful Girls - Freedom (part 2) tabs Hillsong Music Australia - In the Mystery tabs Gerling - The Deer In You tabs Boom Crash Opera - Onion Skin
e-chords

Other versions:

tabs Behind Crimson Eyes - This Is The End tabs Washya - This Is The End
auto scroll beats size up size down change color hide chords drawings
tab show chords e-chords YouTube Clip e-chords hide all tabs e-chords go to top tab

share