Behemoth

Blow Your Trumpets Gabriel

Behemoth

tabs

by  ALYSLIMA

save to print version add songbook text version e-mail correct tuner
chordsukulelecavacokeyboardtabbassdrumsharmonicaflute Guitar Pro
close

there isn't a video lesson for this song

chords

Blow Your Trumpets Gabriel

	  		Repetição dos quatro últimos acordes até a entrada da bateria (0:32) 

 
E|--------------------------------------------------------------------| 
B|--------------------------------------------------------------------| 
G|--------------------------------------------------------------------| 
D|-2-10-9-10-----10-9-10-----10-9-10----------------------------------| 
A|-2-8--7--8---2-8--7--8---2-8--7--8----------------------------------| 
E|-0-----------0-----------0------------------------------------------| 
 

2x Instrumental 
2x "I saw the virgin's cunt spawning forth the snake 
I witnessed tribes ov Judah reduced to ruin" 

 
E|---------------------------------------------------------------------------| 
B|---------------------------------------------------------------------------| 
G|---------------------------------------------------------------------------| 
D|-2-10-9-10-----10-9-10-----10-9-10-----------------------------------------| 
A|-2-8--7--8---2-8--7--8---2-8--7--8---2-3-2-3-------------------------------| 
E|-0-----------0-----------0-----------0-1-0-1-------------------------------| 
 

2x "I watched disciples twelve dissolved by flame 
Looked down on son ov God snuffed in vain" 

 
E|---------------------------------------------------------------------------| 
B|---------------------------------------------------------------------------| 
G|---------------------------------------------------------------------------| 
D|-2-------------------------------------------------------------------------| 
A|-2-11-10-11---2-11-10-11---2-11-10-11---2-3-2-3----------------------------| 
E|-0------------0------------0------------0-1-0-1----------------------------| 
 

Ponte 

 
E|---------------------------------------------------------------------------| 
B|---------------------------------------------------------------------------| 
G|-12~-10~-9~---12~-10~-9~---12~-14~-10~-9~---12~-10~-9~---------------------| 
D|-10~-8~--7~---10~-8~--7~---10~-12~-8~--7~---10~-8~--7~---------------------| 
A|---------------------------------------------------------------------------| 
E|---------------------------------------------------------------------------| 
 

4x "Blow your trumpets, Gabriel! 
As I beheld the bewilderment ov Eden 
Break the bread, nand crumb by crumb into the Leviathan's den 
Nations fall prey, hail my return" 

 
E|---------------------------------------------------------------------------| 
B|---------------------------------------------------------------------------| 
G|---------------------------------------------------------------------------| 
D|-2-------------------------------------------------------------------------| 
A|-2-11-10-11---2-11-10-11---2-11-10-11---2-3-2-3----------------------------| 
E|-0------------0------------0------------0-1-0-1----------------------------| 
 

Ponte seguida de hiato (2:30) 

 
E|---------------------------------------------------------------------------| 
B|---------------------------------------------------------------------------| 
G|---------------------------------------------------------------------------| 
D|-5---4-5-6---5-6-9---------------------------------------------------------| 
A|-3---2-3-4---3-4-7---------------------------------------------------------| 
E|---------------------------------------------------------------------------| 
 

"Hosanna! Hosanna! Tribe ov Judah decimate" 

 
E|---------------------------------------------------------------------------| 
B|---------------------------------------------------------------------------| 
G|---------------------------------------------------------------------------| 
D|----2-----2-----4--1----------2-----2-----3-1------------------------------| 
A|----2-----2-----4--1----------2-----2-----3-1------------------------------| 
E|-0*----0*----0*------------0*----0*----0*----------------------------------| 
 
   .     .     .             .     .     .  

"Hosanna! Hosanna! Root of David erradicate" 

 
E|---------------------------------------------------------------------------| 
B|---------------------------------------------------------------------------| 
G|---------------------------------------------------------------------------| 
D|----6-----6-----5-3----------6-----5-----3-2-------------------------------| 
A|----6-----6-----5-3----------6-----5-----3-2-------------------------------| 
E|-0*-4--0*-4--0*-3-1-------0*-4--0*-3--0*-1-0-------------------------------| 
 

   .     .     .            .     .     . 

Solo (2:57) 

 
E|---------------------------------------------------------------------------| 
B|-12*--13*---8*--9*---5*--6*---1*--4*--5*-----------------------------------| 
G|---------------------------------------------------------------------------| 
D|---------------------------------------------------------------------------| 
A|---------------------------------------------------------------------------| 
E|---------------------------------------------------------------------------| 
 

"Hosanna! Hosanna! Let wine of Sodom fill your mouths" 

 
E|---------------------------------------------------------------------------| 
B|---------------------------------------------------------------------------| 
G|---------------------------------------------------------------------------| 
D|----2-----2-----4--1----------2-----2-----3-1------------------------------| 
A|----2-----2-----4--1----------2-----2-----3-1------------------------------| 
E|-0*----0*----0*------------0*----0*----0*----------------------------------| 
 

   .     .     .             .     .     . 

"Hosanna! Hosanna! May sin of Gommorah grace your hearts" 

 
E|---------------------------------------------------------------------------| 
B|---------------------------------------------------------------------------| 
G|---------------------------------------------------------------------------| 
D|----6-----6-----5-3----------6-----5-----3-2-------------------------------| 
A|----6-----6-----5-3----------6-----5-----3-2-------------------------------| 
E|-0*-4--0*-4--0*-3-1-------0*-4--0*-3--0*-1-0-------------------------------| 
 

   .     .     .            .     .     . 

Outro 

R6 
 
E|---------------------------------------------------------------------------| 
B|---------------------------------------------------------------------------| 
G|-7------------7----------------7*-----------------7*-----------------------| 
D|-5--7--8--7---5--7--8--11------5*--7*--8*--7*-----5*--7*--5*--11*--12~-----| 
A|----5--6--5------5--6--9-----------5*--6*--5*---------5*--6*--9*---10~-----| 
E|---------------------------------------------------------------------------| 
		  

auto scroll beats size up size down change color hide chords drawings
tab show chords e-chords YouTube Clip e-chords hide all tabs e-chords go to top tab

share