Behemoth

Alas The Lord Is Upon Me

Behemoth

tabs

by  ANG-LETRA

save to print version add songbook text version e-mail correct tuner
chordsukulelecavacokeyboardtabbassdrumsharmonicaflute Guitar Pro
close

there isn't a video lesson for this song

chords

Alas The Lord Is Upon Me

	  		Tuning:C# G# E B F# C# 

INTRO 
e|-----4----4--------------4----4--------------4----4--------------4----4------------------|X2 
B|---6---5----6---6------6---5----6---6------6---5----6---6------6---5----6---6------------| 
G|--------------5-------------------5-------------------5-------------------5--------------| 
D|-----------------------------------------------------------------------------------------| 
A|-----------------------------------------------------------------------------------------| 
E|-0-------------------0-------------------0-------------------0---------------------------| 

RIFF 1 
e|-----------------------------| 
B|-----------------------------| 
G|-----------------------------| 
D|-3-3-3--3-3-2~---------------| 
A|-3-3-3--3-3-2~---------------| 
E|-1-1-1--1-1-0~---------------| 

RIFF 2 
e|----------------------------------| 
B|----------------------------------| 
G|----------------------------------| 
D|--3-3-3--3-3-3--2-3-2~------------| 
A|--3-3-3--3-3-3--2-3-2~------------| 
E|--1-1-1--1-1-1--0-1-0~------------| 

RIFF 3  
e|------------------------------------------------------------------------------------| 
B|------------------------------------------------------------------------------------| 
G|----10-10-10-------------------9/6------10-10-10---------4-5-4----------------------| 
D|-2--10-10-10---2--3-3-3--------9/6---2--10-10-10--------------------6---------------| 
A|-2---8--8--8---2--3-3-3---2-2--7/4---2---8--8--8---2-2---2-3-2----------3--2--------| 
E|-0-------------0--1-1-1---0-0--------0-------------0-0-----------X--4---1--0--------| 
                            . .                      . .           .      .  . 
 |-----------------------------------------------------------------------------------|X 2 
B|-----------------------------------------------------------------------------------| 
G|----10-10-10-------------------9/6------10-10-10---------4-5-4---------------------| 
D|-2--10-10-10---2--3-3-3--------9/6---2--10-10-10--------------------6--------------| 
A|-2---8--8--8---2--3-3-3---2-2--7/4---2---8--8--8---2-2---2-3-2---------------------| 
E|-0-------------0--1-1-1---0-0--------0-------------0-0-----------X--4--------------| 
                            . .                      . .           . 
FILL 1 
e|-------------------| 
B|-------------------| 
G|-------------------| 
D|--2~~~-------------| 
A|--2~~~-------------| 
E|--0~~~-------------| 

REP INTRO 

RIFF 3  
e|-----------------------------------------------------------------------------------| 
B|-----------------------------------------------------------------------------------| 
G|----10-10-10-------------------9/6------10-10-10---------4-5-4---------------------| 
D|-2--10-10-10---2--3-3-3--------9/6---2--10-10-10--------------------6--------------| 
A|-2---8--8--8---2--3-3-3---2-2--7/4---2---8--8--8---2-2---2-3-2----------3--2-------| 
E|-0-------------0--1-1-1---0-0--------0-------------0-0-----------X--4---1--0-------| 
                            . .                      . .           .      .  . 
 |-----------------------------------------------------------------------------------|X 2 
B|-----------------------------------------------------------------------------------| 
G|----10-10-10-------------------9/6------10-10-10---------4-5-4---------------------| 
D|-2--10-10-10---2--3-3-3--------9/6---2--10-10-10--------------------6--------------| 
A|-2---8--8--8---2--3-3-3---2-2--7/4---2---8--8--8---2-2---2-3-2---------------------| 
E|-0-------------0--1-1-1---0-0--------0-------------0-0-----------X--4--------------| 
                            . .                      . .           . 

RIFF 3.1  
e|-----------------------------------------------------------------------------------| 
B|-----------------------------------------------------------------------------------| 
G|----10-10-10-------------------9/6------10-10-10---------4-5-4---------------------| 
D|-2--10-10-10---2--3-3-3--------9/6---2--10-10-10--------------------6--------------| 
A|-2---8--8--8---2--3-3-3---2-2--7/4---2---8--8--8---2-2---2-3-2----------3--2-------| 
E|-0-------------0--1-1-1---0-0--------0-------------0-0-----------X--4---1--0-------| 
                            . .                      . .           .      .  . 
 |-----------------------------------------------------------------------------------| 
B|-----------------------------------------------------------------------------------| 
G|----10-10-10-------------------9/6------10-10-10---------4-5-4---------------------| 
D|-2--10-10-10---2--3-3-3--------9/6---2--10-10-10--------------------6--------------| 
A|-2---8--8--8---2--3-3-3---2-2--7/4---2---8--8--8---2-2---2-3-2---------------------| 
E|-0-------------0--1-1-1---0-0--------0-------------0-0-----------X--4--------------| 
                            . .                      . .           . 

RIFF 5 
e|---------------------------------------------------------------------------| 
B|---------------------------------------------------------------------------| 
G|----------10-10-10------------------10-10-10---6-6-6-----------------------| 
D|-------2--10-10-10----2--3--6----2--10-10-10---6-6-6-----------------------| 
A|-XXX/--2---8--8--8----2--3--6----2---8--8--8---4-4-4-----------------------| 
E|-XXX/--0--------------0--1--4----0-----------------------------------------| 

RIFF 6 
e|------------------------------------------------------------------------------| 
B|----------9--9---------------------------9--9--5-5-5-5------------------------| 
G|---------10-10--------------------------10-10--6-6-6-6------------------------| 
D|---------10-10--------------------------10-10--6-6-6-6------------------------| 
A|----------8--8---------------------------8--8--4-4-4-4------------------------| 
E|-00000000-------000000001111444400000000--------------------------------------| 

e|------------------------------------------------------------------------------| 
B|----------9--9---------------------------5-5------5-5-------------------------| 
G|---------10-10---------------------------6-6------6-6-------------------------| 
D|---------10-10---------------------------6-6------6-6-------------------------| 
A|----------8--8---------------------------4-4------4-4-------------------------| 
E|-00000000-------000000001111444400000000-----0000-----------------------------| 

e|------------------------------------------------------------------------------| 
B|----------9--9---------------------------9--9--5-5-5-5------------------------| 
G|---------10-10--------------------------10-10--6-6-6-6------------------------| 
D|---------10-10--------------------------10-10--6-6-6-6------------------------| 
A|----------8--8---------------------------8--8--4-4-4-4------------------------| 
E|-00000000-------000000001111444400000000--------------------------------------| 

e|------------------------------------------------------------------------------|X 2 
B|----------9--9----------------------------9--9-----5-5------------------------| 
G|---------10-10---------------------------10-10-----6-6------------------------| 
D|---------10-10---------------------------10-10-----6-6------------------------| 
A|----------8--8----------------------------8--8-----4-4------------------------| 
E|-00000000-------000000001111444400000000--------------------------------------| 
 
		  

Full key step upFull key step up
Half key step upHalf key step up
Half key step downHalf key step down
Full key step downFull key step down
auto scroll beats size up size down change color hide chords drawings
tab show chords e-chords YouTube Clip e-chords hide all tabs e-chords go to top tab

share