Beethoven

home > Beethoven

Love Story (parte 01) Tab

Beethoven

Difficulty: ExpertExpert

by WilliamRock

tuner correct add songbook print version text version save to e-mail
chordsukulelecavacokeyboardtabbassdrumsharmonicsflute Guitar Pro
chords

Love Story (parte 01)

  		E---8-00-88---00-88---0-1-0---------77-----77----1---- 
B----------------------------3-3-3------33-----3---3-- 
G----------------------------------------------------- 
D----------------------------------------------------- 

E--------55------55-------------------7------- 
B-1-1-1------11------1-3-1----99---10---9-10-- 
G--------------------------4------------------ 
D--------------------------------------------- 
	  

Search Paypal
auto scroll beats size up size down change color hide chords drawings
tab show chords e-chords YouTube Clip e-chords hide all tabs e-chords go to top tab